Oops, an error
Loading. Please wait.

Society tab

3,511 views 78 this week
no commentswrite comment
1 2 3 4 5
x 5
add to favorites
×
Save as Personal and add changes to this tab that will be seen only by you. Learn more ›
×
You can save this tab as Personal to edit and correct it or add notes. All changes will be seen only by you. Learn more »
launch autoscroll
font size
0
reset
how to read this tab
guitar tuner
edit
Autoscroll
slow
fast
+/-
esc
set tempo
stop
Author
-------------------------------------------------------------------------------
                             Society - Alice Phoebe Lou
-------------------------------------------------------------------------------
Tabbed by: ayreon77, NeoMvsEu
E-mail: 

Tuning: Standard

  Fm                                      Gm
e|-------4-|-------4-|-------4-|-------4-|--------6-|-------6-|-------6-|-------6-|
B|---6-----|---6-----|---6-----|---6-----|----8-----|---8-----|---8-----|---8-----|
G|-----5---|-----5---|-----5---|-----5---|-s----7---|-----7---|-----7---|-----7---|
D|-6-------|-6-------|-6-------|-6-------|-\8-------|-8-------|-8-------|-8-------|
A|---------|---------|---------|---------|----------|---------|---------|---------|
E|---------|---------|---------|---------|----------|---------|---------|---------|


-----------------------------------------------------------------------------------


Intro: Fm-Gm (x2)

       Fm
Oh, he stands in front of me
         Fm
And he’s staring manically
          Gm
Screaming oh society
     Gm
What have you done to me?
                Fm
The ground I’ve tread so many years
         Fm
All this blood and sweat and tears
        Gm
Just to be inside your mold
    Gm
And do just what I’m told
        Fm 
If only I had been so bold
           Fm
But now my body’s getting old
    Gm
And time is oh so golden
        Gm
If only it could be frozen
        Fm
But you took it away from me
Fm
Oh society
    Gm
You took it away from me
Gm
Oh, my liberty
       Fm
Oh you took it away from me
Fm
Oh, society
    Gm
You took it away from me
         Gm                                    Fm
When you brainwashed me with formulas of how I should be
Fm                                   Gm
Shaped me and raped me of my individuality
Gm
Schooled me and fooled me
               Fm
Told me what I could and could not see
Fm
Took me and shook me
      Gm
Of my urges to be free


Outro: Bb-Bb-Ebmaj7-Ebmaj7 (x2)

  Bb                                      Ebmaj7
e|---------|---------|---------|---------|---------|---------|---------|---------|
B|-------8-|-------8-|-------8-|-------8-|-------8-|-------8-|-------8-|-------8-|
G|---7-----|---7-----|---7-----|---7-----|---7-----|---7-----|---7-----|---7-----|
D|-----6---|-----6---|-----6---|-----6---|-----8---|-----8---|-----8---|-----8---|
A|-8-------|-8-------|-8-------|-8-------|-6-------|-6-------|-6-------|-6-------|
E|---------|---------|---------|---------|---------|---------|---------|---------|

************************************

| /   slide up
| \   slide down
| h   hammer-on
| p   pull-off
| ~   vibrato
| +   harmonic
| x   Mute note
| b   Bend
| pb  Pre-bend
| br  Bend release
| pbr Pre-bend release
| brb Bend release bend

************************************
Suggest correction
Creating personal tab
Creating personal tab
You can edit any tab online and save it as your Personal.

You can edit, replace or remove any tab part or add personal notes – all changes will be seen only by you.

Personal tabs can be accessed anytime from any device, even offline.
Learn more »
comments
print report bad tab
guest
You may want to rate the tab now too:
select rating
Wanna post a correction for this tab? Suggest correction