Oops, an error
Loading. Please wait.

Take Flight Acoustic tab

691 views 27 this week
3 commentsread comments
1 2 3 4 5
x 3
add to favorites
×
Save as Personal and add changes to this tab that will be seen only by you. Learn more ›
×
You can save this tab as Personal to edit and correct it or add notes. All changes will be seen only by you. Learn more »
launch autoscroll
font size
0
reset
how to read this tab
guitar tuner
edit
Autoscroll
slow
fast
+/-
esc
set tempo
stop
To know the timing and how to play it, watch this live performance of Alice:
https://www.youtube.com/watch?v=qpLP3YJxyNk

Ps. I'm gonna add the chords of the 'outro' if anyone wants to play it too :)
Ps2. If there's anything wrong, please let me know to fix it!

Chords:

[Intro & verses]

Gadd9   [xx5435]
D6      [xx4432]
F6add9  [xx3233]
A       [xx2220] 

[Chorus]

Cadd9   [x3203x]
A7sus4  [x0203x]
Em      [0220xx] 
Em2*    [0440xx] 

*I don’t know the name of this chord so I’m gonna call it ‘Em2’. If someone knows, 
please leave the name on the comments :)

[Intro]

    Gadd9                        D6 
e|---------5-----------5------|-------2-----------2--------|
B|-------3---3-------3---3----|-----3---3-------3---3------|
G|-----4-------4---4-------4--|---4-------4---4-------4----|
D|---5-----------5------------|-4-----------4--------------|
A|----------------------------|----------------------------|
E|----------------------------|----------------------------|

    F6add9                       A
e|---------3-----------3------|-------0-----------0-----S--|
B|-------3---3-------3---3----|-----2---2-------2---2---T-O|
G|-----2-------2---2-------2--|---2-------2---2-------2-R-N|
D|---3-----------3------------|-2-----------2-----------U-C|
A|----------------------------|-------------------------M-E|
E|----------------------------|----------------------------|

[Verse 1]
   
   Gadd9                   D6

   I…          treated you bad…        my dear  
e|-------5-----------5-----------2-----------2-----|
B|-----3---3-------3---3-------3---3-------3---3---|
G|---4-------4---4-------4---4-------4---4-------4-|
D|-5-----------5-----------4-----------4-----------|
A|-------------------------------------------------|
E|-------------------------------------------------|

   F6add9                  A

   I’ll blame it on fear…  to help my own ears
e|-------3-----------3-----------0-----------0-----|
B|-----3---3-------3---3-------2---2-------2---2---|
G|---2-------2---2-------2---2-------2---2-------2-|
D|-3-----------3-----------2-----------2-----------|
A|-------------------------------------------------|
E|-------------------------------------------------|

   Gadd9                   D6

   And I…      put myself… first…      my love      
e|-------5-----------5-----------2-----------2-----|
B|-----3---3-------3---3-------3---3-------3---3---|
G|---4-------4---4-------4---4-------4---4-------4-|
D|-5-----------5-----------4-----------4-----------|
A|-------------------------------------------------|
E|-------------------------------------------------|

   F6add9                  A

   I pushed and I pushed…  and I shoved and I shoved
e|-------3-----------3-----------0-----------0-----|
B|-----3---3-------3---3-------2---2-------2---2---|
G|---2-------2---2-------2---2-------2---2-------2-|
D|-3-----------3-----------2-----------2-----------|
A|-------------------------------------------------|
E|-------------------------------------------------|

[Chorus]

   Cadd9       A7sus4      Em

   Sometimes…  I can’t…    breathe…            and      
e|-------------------------------------------------|
B|-------3-----------3-----------------------------|
G|-----0---0-------0---0---------0-----------0-----|
D|---2-------2---2-------2-----2---2-------2---2---|
A|-3-----------0-------------2-------2---2-------2-|
E|-------------------------0-----------0-----------|

   push you…   out to…     sea…        and leave you
e|-------------------------------------------------|
B|-------3-----------3-----------------------------|
G|-----0---0-------0---0---------0-----------0-----|
D|---2-------2---2-------2-----2---2-------2---2---|
A|-3-----------0-------------2-------2---2-------2-|
E|-------------------------0-----------0-----------|

   Em2
  
   drowning…
e|-------------------------------------------------|
B|-------------------------------------------------|
G|-------0----------0-----------0-----------0------|
D|-----4---4------4---4-------4---4-------4---4----|
A|---4------4---4-------4---4-------4---4-------4--|
E|-0----------0-----------0-----------0------------|

   drowning…
e|-------------------------------------------------|
B|-------------------------------------------------|
G|-------0----------0-----------0-----------0------|
D|-----4---4------4---4-------4---4-------4---4----|
A|---4------4---4-------4---4-------4---4-------4--|
E|-0----------0-----------0-----------0------------|

[Verse 2]

   Gadd9                   D6

   And you…    you shook…  my soul…    my friend  
e|-------5-----------5-----------2-----------2-----|
B|-----3---3-------3---3-------3---3-------3---3---|
G|---4-------4---4-------4---4-------4---4-------4-|
D|-5-----------5-----------4-----------4-----------|
A|-------------------------------------------------|
E|-------------------------------------------------|

   F6add9                  A

 You know that I know that this ain’t the end
e|-------3-----------3-----------0-----------0-----|
B|-----3---3-------3---3-------2---2-------2---2---|
G|---2-------2---2-------2---2-------2---2-------2-|
D|-3-----------3-----------2-----------2-----------|
A|-------------------------------------------------|
E|-------------------------------------------------|


   Gadd9                   D6

   And you…    opened my…  heart…      again…            
e|-------5-----------5-----------2-----------2-----|
B|-----3---3-------3---3-------3---3-------3---3---|
G|---4-------4---4-------4---4-------4---4-------4-|
D|-5-----------5-----------4-----------4-----------|
A|-------------------------------------------------|
E|-------------------------------------------------|

   F6add9                  A

But things they have changed now and we can’t pretend
e|-------3-----------3-----------0-----------0-----|
B|-----3---3-------3---3-------2---2-------2---2---|
G|---2-------2---2-------2---2-------2---2-------2-|
D|-3-----------3-----------2-----------2-----------|
A|-------------------------------------------------|
E|-------------------------------------------------|

[Chorus]

   Cadd9       A7sus4      Em

But we’ve got… mountains…  to climb…           and      
e|-------------------------------------------------|
B|-------3-----------3-----------------------------|
G|-----0---0-------0---0---------0-----------0-----|
D|---2-------2---2-------2-----2---2-------2---2---|
A|-3-----------0-------------2-------2---2-------2-|
E|-------------------------0-----------0-----------|

   Sure I’m…    happy…     when you’re mine but we’re
e|-------------------------------------------------|
B|-------3-----------3-----------------------------|
G|-----0---0-------0---0---------0-----------0-----|
D|---2-------2---2-------2-----2---2-------2---2---|
A|-3-----------0-------------2-------2---2-------2-|
E|-------------------------0-----------0-----------|

   Em2
  
   drowning…
e|-------------------------------------------------|
B|-------------------------------------------------|
G|-------0----------0-----------0-----------0------|
D|-----4---4------4---4-------4---4-------4---4----|
A|---4------4---4-------4---4-------4---4-------4--|
E|-0----------0-----------0-----------0------------|

   drowning…
e|-------------------------------------------------|
B|-------------------------------------------------|
G|-------0----------0-----------0-----------0------|
D|-----4---4------4---4-------4---4-------4---4----|
A|---4------4---4-------4---4-------4---4-------4--|
E|-0----------0-----------0-----------0------------|

---------------------------------- Acoustic version's part ----------------------------------

[Outro]

Em      [022000] 
Em2*    [044000] 
Em3*    [055000]

    Em        Em2          Em3       Em2
And I’ll fend for myself just fine
    Em        Em2          Em3       Em2
Should I send for my heart this time
    Em        Em2          Em3       Em2
And I’ll fend for myself just fine
    Em        Em2          Em3       Em2
Should I send for my heart this time

          Em                     
There’s a ship and 
              Em2
it’s floating far out to sea
Em3
I see it there
              Em2
It’s floating away from me
          Em
I’ve been blowing those sails
Em2
This way and that
          Em3
We’ve got storm clouds chained tight

Em2               Em      Em2     Em3   
It’s time to take fli-i-i-i-i-i-i-ght
Em2               Em      Em2     Em3   
It’s time to take fli-i-i-i-i-i-i-ght

Em2          Em
It’s time to take flight
             Em2
It’s time to take flight
             Em3
It’s time to take flight
             Em2
It’s time to take flight
             Em
It’s time to take flight
             Em2
It’s time to take flight
             Em3
It’s time to take flight
             Em2
It’s time to take flight
Suggest correction
Creating personal tab
Creating personal tab
You can edit any tab online and save it as your Personal.

You can edit, replace or remove any tab part or add personal notes – all changes will be seen only by you.

Personal tabs can be accessed anytime from any device, even offline.
Learn more »
Give kudos to tab author, rate the tab!
1 2 3 4 5
comments
print report bad tab
3 comments total.
+1 reply
EddLion 84 Jan 10, 2017 10:38 PM

Thank you so much, Bagsaplin! I literally yesterday posted a forum under "Tab Talk" requesting this song to be tabbed, and here it is! Thank you so much!

The A chord sounds a bit off during the verses. I believe instead of being played "xx2220" it should be "xx2023". The picking pattern is correct, nothing off with it.

guest
You may want to rate the tab now too:
select rating
Wanna post a correction for this tab? Suggest correction