Oops, an error
Loading. Please wait.

A Womans Worth Chords

version 1
version 1

Whole song

54,792 views 36 this week
no commentswrite comment
1 2 3 4 5
x 5
add to favorites
launch autoscroll
font size
0
reset
transpose
0
reset
simplify chords
display chords
guitar tuner
×
Best way to learn
"A Womans Worth"
Autoscroll
slow
fast
+/-
esc
set tempo
stop
[Used chords]
Em7: 022030
Bm7: x20202
Am7: x02010
C :  x32010
B :  799877

[Intro]
E|--0----------|--2-----------|--0-----------|--2-----------||
B|--3----------|--0-----------|--1-----------|--0-----------||
G|--0----------|--2-----------|--0-----------|--2-----------||
D|--2----0--2--|--0-----------|--2-----------|--0-----------||
A|--2--2-------|--2-----0--2--|--0--------0--|--2-----0--2--||
E|--0----------|-----2--------|-----0--3-----|-----2--------||

[Verse 1]
E|--0----------|--2-----------|--0-----------|--2-----------||
B|--3----------|--0-----------|--1-----------|--0-----------||
G|--0----------|--2-----------|--0-----------|--2-----------||
D|--2----0--2--|--0-----------|--2-----------|--0-----------|| x2
A|--2--2-------|--2-----0--2--|--0--------0--|--2-----0--2--||
E|--0----------|-----2--------|-----0--3-----|-----2--------||
you could buy me diamonds
you could buy me pearls
take me on a cruise around the world
baby you know I'm worth it
dinner lit by candles
run my bubble bath
make love tenderly to last to last
baby you know I'm worth it

[Pre-Chorus]
Am Em/G D/F# Em D
wanna please, wanna keep, wanna treat your woman right
Am Em/G D/F# D
Not just dough, but to show that you know she's worth your time
Am Em/G D/F# D
you will lose if you chose to refuse to put her first
B
She will if can find a man who knows her worth!!!

[Chorus]
Em7 Bm7
Cause a real man, knows a real woman when he sees her
Am7 Bm7
And a real woman knows a real man ain't afraid to please her
Em7 Bm7
And a real woman knows a real man always comes first
Am7 Bm7
And a real man just can't deny a womans worth

Em7
Mm Hmm Mm Hmmm
Bm7
Mm Hmm Mm Hmmm
Em7
Mm Hmm Mm Hmmm
Bm7
Mm

[Verse 2]
E|--0----------|--2-----------|--0-----------|--2-----------||
B|--3----------|--0-----------|--1-----------|--0-----------||
G|--0----------|--2-----------|--0-----------|--2-----------|| x2
D|--2----0--2--|--0-----------|--2-----------|--0-----------||
A|--2--2-------|--2-----0--2--|--0--------0--|--2-----0--2--||
E|--0----------|-----2--------|-----0--3-----|-----2--------||
If you treat me fairy
I'll give you all my goods
Treat you like a real woman should
Baby I know you're worth it
If you never play me
Promise not to bluff
I'll hold you down when shit gets rough
Cause baby I know you're worth it

[Pre-Chorus]
She walks the mile makes you smile all the while being true
Don't take for granted the passions that she has for you
You will lose if you chose to refuse to put her first
She will if she can find a man who knows her worth

[Chorus]
Em7 Bm7
Cause a real man, knows a real woman when he sees her
Am7 Bm7
And a real woman knows a real man ain't afraid to please her
Em7 Bm7
And a real woman knows a real man always comes first
Am7 Bm7
And a real man just can't deny a womans worth

Em7
Mm Hmm Mm Hmmm
Bm7
Mm Hmm Mm Hmmm
Em7
Mm Hmm Mm Hmmm
Bm7
Mm

[Bridge]
Am7 Bm7 C Bm7 Am7
No need to read between the lines spelled out for you
(spelled out for you)
Am7 Bm7 C Bm7 Am7
Just hear this song cause you can't go wrong when you value (better value)
Bm7
A woman's (woman's)
Bm7
Woman's (woman's)
B
WORTH!

[Chorus]
Em7 Bm7
Cause a real man, knows a real woman when he sees her
Am7 Bm7
And a real woman knows a real man ain't afraid to please her
Em7 Bm7
And a real woman knows a real man always comes first
Am7 Bm7
And a real man just can't deny a womans worth

Em7
Mm Hmm Mm Hmmm
Bm7
Mm Hmm Mm Hmmm
Em7
Mm Hmm Mm Hmmm
Bm7
Mm
Suggest correction
comments
print report bad tab
guest
You may want to rate the tab now too:
select rating
Wanna post a correction for this tab? Suggest correction