Oops, an error
Loading. Please wait.

Fallin Tab

version 1
version 1

Intro

Whole song

22,280 views 18 this week
2 commentsread comments
1 2 3 4 5
accurate
x 17
add to favorites
launch autoscroll
font size
0
reset
how to read this tab
guitar tuner
Tab Pro tools
  • play this tab
  • loop segment
  • change instrument
  • show fretboard
  • metronome
Autoscroll
slow
fast
+/-
esc
set tempo
stop
Contributor
Very Easy... 
Standard tuning

E------0-0----------2-2--------------------------
B----0-----0------3-----3------------------------
G--0---------0--2---------2----------------------
D------------------------------------------------
A------------------------------------------------
E------------------------------------------------

Repeats several times
Thats it! enjoy!
comments
print report bad tab
2 comments total.
0 reply
K!llaH wrote on January 26 2002, 12:00 am

I saw this in the list and thought "Alicia Keys, WTF" but its good.

0 reply
HuGs_N_KiSsEs wrote on August 11 2008, 09:56 pm

You didn't add the second part

e------0-0----------3-3---------0-0----------2-2--------
B----0-----0------3-----3-----0-----0------3-----3------
G--0---------0--2--------2--0---------0--4---------4----
D-------------------------------------------------------
A-------------------------------------------------------
E-----------------------------

I want to post or [tab]
guest
You may want to rate the tab now too:
select rating
Please do not post tabs as comments. Select "correction" instead!