Oops, an error
Loading. Please wait.
We have Chord Pro version of Girl On Fire.
It's the closest thing you can get to the original song and it has interactive parts. Check out the tab »
×
1,739 views 1 this week
1 commentread comment
1 2 3 4 5
x 3
add to favorites
launch autoscroll
font size
0
reset
how to read this tab
guitar tuner
Autoscroll
slow
fast
+/-
esc
set tempo
stop
Author
This is my first tab. Sorry for any mistakes.


e--5-5-5-5---------------------------------------------|
B-----------5-5-2-7-7-2--3-3-3-3-5-7-5--5-5-5-5-3-2----|
D------------------------------------------------------|
G------------------------------------------------------|repeat 2x
A------------------------------------------------------|
E------------------------------------------------------|

e--4-5-4-5-4-2--5-5-5-5-7-9--5-5-5-5-7-9--------7------|
B--------------------------7------------5--5-7-9-------|
D------------------------------------------------------|
G------------------------------------------------------|  
A------------------------------------------------------|
E------------------------------------------------------|

e--5-4-5-4-2--5-5-5-5-7-9--5-5-5-5-7-9-----------------|
B------------------------7------------5----------------|
D------------------------------------------------------|
G------------------------------------------------------|  
A------------------------------------------------------|
E------------------------------------------------------|

e--9-9-7-5-9-9--9-9-7-5-7-7--9-9-7-5-12-9--9-9-7-5-7-7-|
B------------------------------------------------------|
D------------------------------------------------------|
G------------------------------------------------------|  
A------------------------------------------------------|
E------------------------------------------------------|
Suggest correction
Give kudos to tab author, rate the tab!
1 2 3 4 5
comments
print report bad tab
1 comment total.
0 reply
Stephenie.30 10 Jun 02, 2014 09:08 AM, edited at 01:09 pm

It is very good,but,the notes are:E B G D A E
Not: E B D G A E

It's ok.It's just one little mistake,but the song is perfect!

guest
You may want to rate the tab now too:
select rating
Wanna post a correction for this tab? Suggest correction