Oops, an error
Loading. Please wait.

If I Aint Got You Tab

version 2
version 2

Whole song

Interactive

20,183 views 39 this week
no commentswrite comment
1 2 3 4 5
please rate
add to favorites
launch autoscroll
font size
0
reset
how to read this tab
guitar tuner
Autoscroll
slow
fast
+/-
esc
set tempo
stop
Help us to improve Ultimate-Guitar.com Take our survey!
×
Contributor
jenmed 53
[Intro]

                      x2                   x2
e|--0-----0-----0-----||-------------------||-------------------||
B|----0-----0-----0---||-3-----3-----3-----||-1-----1-----1-----||
G|------0-----0-----0-||---2-----2-----2---||---0-----0-----0---||
D|--------------------||-----4 ----4-----4-||-----2-----2-----2-||
A|--------------------||-------------------||-------------------||
E|--------------------||-------------------||-------------------||

e|-------------------------------------------|
B|-0-----0------0------0------1------3-------|
G|------------------------------0------2-----|
D|---4------4------4------4-------2------4---|
A|-----5------5------5------5----------------|
E|-------------------------------------------|
                    
                                         x2
e|-0-----0-----0-----||--------------------------------------|
B|---0-----0-----0---||-3-----3-----3-----3-----3-----2------|
G|-----0-----0-----0-||---2-----2-----2-----2-----2-----1----|
D|-------------------||-----4-----4-----4-----4-----4-----3--|
A|-------------------||--------------------------------------|
E|-------------------||--------------------------------------|

                     x2
e|-------------------||--2------|
B|-1-----1-----1-----||---------|
G|---0-----0-----0---||---------|
D|-----2-----2-----2-||---------|
A|-------------------||---------|
E|-------------------||--3--0h3-|


[Verse]

GM7                        EM7
 Some people live for the fortune
AM7                       DM7
Some people live just for the fame
GM7                      G#M7
Some people live for the power, yeah
AM7                      DM7
Some people live just to play the game


[Pre-Chorus]

GM7          AM7          BM7      AM7
Some people think that the physical things
GM7          BM7
Define what's within
C7-BM7-AM7  
  And I've 
GM7      AM7  
been there before
BM7            AM7
But that life's a bore
GM7      AM7        BM7...
So full of the superficial


[Chorus]

BM7         C7
Some people want it all
                 BM7
But I don't want nothing at all
           AM7
If it ain't you baby
            GM7           
If I ain't got you baby
AM7-BM7-C7      
Some people want diamond rings
            BM7
Some just want everything
               BbM7-AM7
But everything means nothing
AM7
If I ain't got you, Yeah


[Verse]

GM7                        EM7
Some people search for a fountain
AM7                       DM7
That promises forever young
GM7                        G#M7
Some people need three dozen roses
AM7                       DM7
And that's the only way to prove you love him

GM7          AM7          BM7      AM7
Hand me the world on a silver platter
GM7          BM7       C7-BM7-AM7  
And what good would it be
GM7      AM7 
With no one to share 
GM7      AM7        BM7...
With no one who truly cares for me 


[Chorus]

BM7         C7
Some people want it all
                 BM7
But I don't want nothing at all
           AM7
If it ain't you baby
            GM7           
If I ain't got you baby
AM7-BM7-C7      
Some people want diamond rings
            BM7
Some just want everything
               BbM7-AM7
But everything means nothing
AM7
If I ain't got you, Yeah


[Interlude]

e|--0-----0-----0-----||-------------------||-------------------||
B|----0-----0-----0---||-3-----3-----3-----||-1-----1-----1-----||
G|------0-----0-----0-||---2-----2-----2---||---0-----0-----0---||
D|--------------------||-----4 ----4-----4-||-----2-----2-----2-||
A|--------------------||-------------------||-------------------||
E|--------------------||-------------------||-------------------||

e|-------------------------------------------|
B|-0-----0------0------0------1------3-------|
G|------------------------------0------2-----|
D|---4------4------4------4-------2------4---|
A|-----5------5------5------5----------------|
E|-------------------------------------------|
                    
                                         x2
e|-0-----0-----0-----||--------------------------------------|
B|---0-----0-----0---||-3-----3-----3-----3-----3-----2------|
G|-----0-----0-----0-||---2-----2-----2-----2-----2-----1----|
D|-------------------||-----4-----4-----4-----4-----4-----3--|
A|-------------------||--------------------------------------|
E|-------------------||--------------------------------------|

                     x2
e|-------------------||--2------|
B|-1-----1-----1-----||---------|
G|---0-----0-----0---||---------|
D|-----2-----2-----2-||---------|
A|-------------------||---------|
E|-------------------||--3--0h3-|


If I ain't got you with me baby
So nothing in this whole wide world don't mean a thing
If I ain't got you with me baby


************************************

| x  Dead note
| h  Hammer-on

************************************


Chords
  GM7 G#M7  EM7  AM7  DM7  BM7  BbM7  C7
e -2-  -1-  -0-  -0-  -2-  -2-  -1-  -x-
B -0-  -0-  -3-  -1-  -1-  -3-  -2-  -x-
G -0-  -1-  -0-  -0-  -2-  -2-  -1-  -0-
D -0-  -x-  -2-  -2-  -0-  -4-  -3-  -2-
A -x-  -x-  -2-  -0-  -x-  -2-  -1-  -3-
E -3-  -x-  -x-  -x-  -x-  -x-  -x-  -x-
comments
We did not receive enough feedback on this tab! Please rate:
print report bad tab
1 2 3 4 5
I want to post or [tab]
guest
You may want to rate the tab now too:
select rating
Please do not post tabs as comments. Select "correction" instead!