Oops, an error
Loading. Please wait.

No One Tab

version 1
version 1

Whole song

Interactive

36,956 views 3 this week
2 commentsread comments
1 2 3 4 5
x 8
add to favorites
launch autoscroll
font size
0
reset
how to read this tab
guitar tuner
Autoscroll
slow
fast
+/-
esc
set tempo
stop
Help us to improve Ultimate-Guitar.com Take our survey!
×
Author
Difficulty
intermediate
-----------------------------------|
             No One - Alicia Keys -|Tabbed by: bukxhum
Email: admin@solcrew.com

Tuning:

e|--4--4--0--7--4--0-----|
B|--0-----------------0--|
G|-----------------------|
D|-----------------------|
A|-----------------------|
E|-----------------------|

e|---2--4-----7--4--2----|
B|4--------7-----------4-|
G|-----------------------|
D|-----------------------|
A|-----------------------|
E|-----------------------|

e|---0--4--0--7--4--0----|
B|2--------------------2-|
G|-----------------------|
D|-----------------------|
A|-----------------------|
E|-----------------------|

e|------0-----5--0-------|
B|---2-----2--------2----|
G|2--------------------2-|
D|-----------------------|
A|-----------------------|
E|-----------------------|
Suggest correction
comments
print report bad tab
2 comments total.
0 reply
MissTuckaaa 10 Jan 25, 2008 12:08 AM

awesome!!!! ur the only one that has the correct tab for this song. u rock!

0 reply
mercedesroze 10 Nov 18, 2013 08:47 PM

-----------------------------------|
No One - Alicia Keys -|Tabbed by: bukxhum, revised by mermer5995
Email: admin@solcrew.com for original

Tuning:

e|-----------------------|
B|-----------------------|
G|-----------------------|
D|--6--6-----9--6--------|
A|--7-----7--------7-----|
E|--------------------7--|

e|-----------------------|
B|-----------------------|
G|-----------------------|
D|------6-----9--6-------|
A|6--9-----9--------9--6-|
E|-----------------------|

e|-----------------------|
B|-----------------------|
G|-----------------------|
D|------6-----9--6-------|
A|---7-----7--------7----|
E|9--------------------9-|

e|-----------------------|
B|-----------------------|
G|-----------------------|
D|-----------------------|
A|------7-----7--7--6----|
E|5--9-----9-------------|

guest
You may want to rate the tab now too:
select rating
Wanna post a correction for this tab? Suggest correction