Oops, an error
Loading. Please wait.

No One Tab

version 2
version 2

Whole song

Interactive

89,630 views 30 this week
3 commentsread comments
1 2 3 4 5
excellent!
x 17
add to favorites
launch autoscroll
font size
0
reset
how to read this tab
guitar tuner
Tab Pro tools
  • play this tab
  • loop segment
  • change instrument
  • show fretboard
  • metronome
×
Best way to learn
"No One"
Autoscroll
slow
fast
+/-
esc
set tempo
stop
Contributor
  Chords:
  E:  022100
  B:  x2444x
Dbm:  x46654
  A:  x03330
F#m:  244222
Abm:  466444

Intro:

     E                 B                    Dbm
e|----------7-------------------7--------------4--7-4----------------------|
B|---9-9------9----------7-9-7----9-7--------5--5-----5--------------------|
G|-------9------9------8---------------8----6-----------6------------------|
D|---9-------------9-------------------------------------------------------|
A|-------------------------------------------------------------------------|
E|-------------------------------------------------------------------------|
   A
e|---------5-----------|
B|-----5-----5---------|
G|---6---6-----6-------|
D|-7------------7------|
A|---------------------|
E|---------------------|

 Bass on "no one..."

    E    B      Dmb    A          E   B      Dmb   A
e|---------------------------------------------------------------|
B|---------------------------------------------------------------|
G|---------------------------------------------------------------|
D|---------------------------------------------------------------|
A|--7--7--------------------------7-7-------7-4--4---------------|
E|-------7---7-8-9---9-5--5---5-7-----7--4-7-------5--5-5--5-----|

   E               B             Dbm            A
e|----------------------------------------------------------------|
B|----------------------------------------------------------------|
G|---------9---------------8-------------6---------------6--------|  2X
D|-----6-9---9-6---------9--9----------6---6-----------7--7-------|
A|---7-----------7-----9------9------7------7--------7------7-----|
E|-------------------7---------7---9---------9-----5----------5---|


E                  B
  I just want you close
Dbm              A
  Where you can stay forever
E             B
  You can be sure
Dbm              A
   That it will only get better

(chorus)

E                    B
  You and me together
                            Dbm
Through the days and nights

I dont worry cause
A
Everythings gonna be alright
E                     B
  People keep talking
                            Dbm
They can say what they like
                  A
But all I know is everything's gonna be alright

E           B          Dbm
  No one no one no one
                A
Can get in the way of what I'm feeling
E           B         Dbm
 No one no one no one
                A                        E
Can get in the way of what I feel for you
     B      Dbm
You you you you
               A                      E
Can get in the way of what I feel for you


E                           B
  When the rain is pouring down
Dbm       A
  And my heart is hurting
E                        B    Dbm
   You will always be around
       A
  This I know for certain

chorus....


   F#m              Abm
I know some people search the world
    A                   Dbm
To find something like what we have
   F#m             Abm
I know people will try

Try to divide
              A
Something so real
            B
So till the end of time

I'm telling you that

chorus..
comments
print report bad tab
3 comments total.
0 reply
neohippie 7319 wrote on April 5 2008, 04:20 pm

Thank you so much for this!
I wanted to learn to play the bass for my girlfriend, and the bass part of the tab is spot on. Thanks for the wonderful job done = )

0 reply
JakeLo wrote on October 7 2008, 09:54 am

thanx! correct chords!
good job!

0 reply
cliffratt wrote on February 19 2010, 10:09 pm

Very nice.

I want to post or [tab]
guest
You may want to rate the tab now too:
select rating
Please do not post tabs as comments. Select "correction" instead!