Oops, an error
Loading. Please wait.

Bug Bytes Tab

479 views 1 this week
no commentswrite comment
1 2 3 4 5
excellent!
x 1
add to favorites
launch autoscroll
font size
0
reset
how to read this tab
guitar tuner
Tab Pro tools
  • play this tab
  • loop segment
  • change instrument
  • show fretboard
  • metronome
Autoscroll
slow
fast
+/-
esc
set tempo
stop
Contributor
Alien Ant Farm
Bug Bytes
Spiderman 1 OST


Note-strumming not shown

Tuning:Standard

Intro
e|-------------------------------------------------------------------------|
B|-x-0---------------------------------------------------------------------|
G|-x-0---------------------------------------------------------------------|
D|-x-0---------------------------------------------------------------------|
A|-x-0---------------------------------------------------------------------|
E|-------------------------------------------------------------------------|

Verse  tremelo pick  Riff 1 
e|-------------------------------------------------------------------------|
B|-------------------------------------------------------------------------|
G|-5-------7-----9----12-----14--------------------------------------------|
D|-x-------x-----x----x-------x--------------------------------------------|
A|-3-------5-----7----10-----12--------------------------------------------|
E|-------------------------------------------------------------------------|

Verse cont.   riff 2
e|-------------------------------------------------------------------------|
B|-------------------------------------------------------------------------|
G|-------------------------------------------------------------------------|
D|------------6------------------------------------------------------------|
A|--4-4-4-4---4------------------------------------------------------------|
E|--5-5-5-5---4------------------------------------------------------------|
    -PM----

Verse cont. riff 3
e|-------------------------------------------------------------------------|
B|-------------------------------------------------------------------------|
G|-5-----------------------------------------------------------------------|
D|-5------3----2-----------------------------------------------------------|
A|-3------3----2-----3-----3-----------------------------------------------|
E|--------1----0-----5-----4-----------------------------------------------|

Part leading into chorus
e|-------------------------------------------------------------------------|
B|-x-x--0--0-x--0-x--0--0--0---0-x--0--------------------------------------|
G|-x-x-10-10-x-10-x-10-10--10-11-x-12--------------------------------------|
D|-x-x-9--9--x-9--x-9--9---9--9--x-9---------------------------------------|
A|-------------------------------------------------------------------------|
E|-------------------------------------------------------------------------|


Chorus

  Sing   anything    swing   anything
e|-------------------------------------------------------------------------|
B|-------------------------------------------------------------------------|
G|-9------9----------11-------11----12-------------------------------------|
D|-6------7-----------9-------10----10-------------------------------------|
A|-7------8-----------x--------x-----x-------------------------------------|
E|-------------------10-------10----10-------------------------------------|

Leading into 2nd verse
e|-------------------------------------------------------------------------|
B|--------------0----------------------------------------------------------|
G|--------------0----------------------------------------------------------|
D|--------------0----------------------------------------------------------|
A|-------------------------------------------------------------------------|
E|-6whammy up--------------------------------------------------------------|


The part "It's quite the web" same chords as chorus.

Bridge  "Feeling strange.." parts  let ring throughout
e|-------------------------------------------------------------------------|
B|-------------------------------------------------------------------------|
G|-9----8-----------------------------------2-----3-----2-----8---7---7----|
D|-6-9--6-----10---10-9------7---7-6------0---0-----0-----2-0-5---5--------|
A|-7-7--7---7---------7----6-------6--------------------------6-6-6-6------|
E|--------8------8----8--7-----7---7-7\-3-------3-----3--------------------|

cont.
e|-------------------------------------------------------------------------|
B|-------------------------------------------------------------------------|
G|-------------------------------------------------------------------------|
D|-----10---10-9------7---7-6----------------------------------------------|
A|---7---------7----4-------4----------------------------------------------|
E|-8------8----8--5-----5---5-5\-------------------------------------------|

cont.  strumming not shown
 heavy dist. and flanger
e|-----------------------------------------0-------------------------------|
B|-----------------------------------------0-------------------------------|
G|---------------0------0-----0------0-----0-------------------------------|
D|-3-------------3------5-----7------10\---0-------------------------------|
A|-3-----------------------------------------------------------------------|
E|-1-----------------------------------------------------------------------|


Ending
e|-------------------------------------------------------------------------|
B|-------------------------------------------------------------------------|
G|-9---8-------------------------------------------------------------------|
D|-6-9-6-------------------------------------------------------------------|
A|-7-7-7/7--3(ph)----------------------------------------------------------|
E|-------------------------------------------------------------------------|


| /  slide up
| \  slide down
| h  hammer-on
| p  pull-off
| ~  vibrato
| +  harmonic
| x  Mute note
===============================================================================
comments
We did not receive enough feedback on this tab! Please rate:
print report bad tab
1 2 3 4 5
I want to post or [tab]
guest
You may want to rate the tab now too:
select rating
Please do not post tabs as comments. Select "correction" instead!