Oops, an error
Loading. Please wait.

Denigrate Tab

version 1
version 1

Intro

Whole song

282 views 1 this week
no commentswrite comment
1 2 3 4 5
excellent!
x 3
add to favorites
launch autoscroll
font size
0
reset
how to read this tab
guitar tuner
Tab Pro tools
  • play this tab
  • loop segment
  • change instrument
  • show fretboard
  • metronome
Autoscroll
slow
fast
+/-
esc
set tempo
stop
Contributor
Alien Ant Farm - Denigrate
TABBED BY: jjhand
Standard Tuning


Riff 1 w/ heavy dist and light flange
E|---------------------------------|----------------------------|
B|---------------------------------|----------------------------|
G|-----3-3-3-2-----2----0--0-0-----|----------------------------|
D|-----3-3-3-3---x-3-x--0--0-0-x-x-|------------x-----2---2/3---|
A|-x-x-0-0-0-0---x-0-x--3--3-2-x-x-|--5--5--4---x-4---2---2/3---|
E|-x-x-1-1-1-1---x-1-x--3--3-3-x-x-|--5--5--5---x-5-------------|
       Thumb on E string                            

E|--------------------------------|-----------------|
B|--------------------------------|-----------------|
G|-----3-3-3-2-----2----0---0-0---|-----------------|
D|----------------------0---0-0-x-|-0-0-0-----------| < let strings ring
A|-x-x-0-0-0-0---x-0-x--3---3-2-x-|-----4-----------| < on ending
E|-x-x-1-1-1-1---x-1-x--3---3-3---|-----------------| 

                              
Main Riff & Chorus:
play 3x
E|----------------------|-------------------|
B|----------------------|-------------------|
G|----------------------|-------------------|
D|--0--0-0---x--------x-|-0---0---0-----2/3-|
A|--1--0-0---x--3-2---x-|-0---4---4-----2/3-|
E|--1--1-1---x--3-3---x-|-------------------|

ending:
E|----------------------|-------------------|
B|----------------------|-------------------|
G|----------------------|-------------------|
D|--0--0-0---x--------x-|-0---0---0---0---0-|
A|--1--0-0---x--3-2---x-|-0---4---4---0---1-|
E|--1--1-1---x--3-3---x-|-------------------|


Verse Riff 1- 

  Guitar 1 - pick lightly w/ clean tone
E|------------------------------|------------------------------|
B|-10---------------------------|----------------------10--8---|
G|------------------------------|------------------------------|
D|------------------------------|------------------------------|play 3x
A|------------------------------|------------------------------|
E|------------------------------|------------------------------|
 |
 |Guitar 2
e|------------------------------|------------------------------|
B|------------------------------|------------------------------|
G|------------------------------|------------------------7---7-|
D|-------7--7------7--7-------7-|------7--7------7--7--7---7---|play 3x
A|--5--5------4--4------4---4---|------------------------------|
E|------------------------------|-5--5------6--6---------------|
    
  Guitar 1
E|------------------------------|------------------------------|
B|-10---------------------------|----------------------10--8---|
G|------------------------------|------------------------------|
D|------------------------------|------------------------------|
A|------------------------------|------------------------------|
E|------------------------------|------------------------------|
 |
 |Guitar 2
e|------------------------------|-------------------------------|
B|------------------------------|-------------------------------|
G|------------------------------|-------------------------------|
D|-------7--7------7--7-------7-|-------2--2------3--3----3-----|
A|--5--5------4--4------4---4---|--4--4------5--5-------5---0-5-|
E|------------------------------|-------------------------------|

Verse Riff 2:
  Guitar 1
E|-----------------------------|------------------------------|
B|-10----10----10----10----10--|--10----10----10----11--11----|
G|-----------------------------|------------------------------|
D|-----------------------------|------------------------------|
A|-----------------------------|------------------------------|
E|-----------------------------|------------------------------|
 |
 |Guitar 2
e|------------------------------|------------------------------|
B|------------------------------|------------------------------|
G|------------------------------|------------------------7---7-|
D|-------7--7------7--7-------7-|------7--7------7--7--7---7---|
A|--5--5------4--4------4---4---|------------------------------|
E|------------------------------|-5--5------6--6---------------|

  Guitar 1
E|-----------------------------|------------------------------|
B|-10----10----10----10----10--|--10----10----10----11--11----|
G|-----------------------------|------------------------------|
D|-----------------------------|------------------------------|
A|-----------------------------|------------------------------|
E|-----------------------------|------------------------------|
 |
 | Guitar 2               * Turn Distortion on
e|------------------------------|------------------------------|
B|------------------------------|------------------------------|
G|------------------------------|------------------------------|
D|-------7--7------7--7---x--x--|--2----2----2----3----3----3--|
A|--5--5------4--4--------x--x--|--4----4----4----5----5----5--|
E|------------------------------|------------------------------|


Chorus:
  Guitar 2 - play 2x
E|-------------|------------------|------------------|--------------------|
B|-------------|------------------|------------------|--------------------|
G|-------------|-----------10-9---|--7TP-----9TP-----|--10TP---12TP--14TP-|
D|-------------|--7----8----------|------------------|--------------------|
A|--5-----4----|--7----7----8-7---|--5TP-----7TP-----|--8TP----10TP--12TP-|
E|--5-----5----|--5----6----------|------------------|--------------------|


After Chorus, Guitar 2 holds strings and wiggles whammy bar
Guitar 1 plays Verse Riff 2 part

Play Verse Riff 1 & 2

Play Chorus again


Interlude (after second Chorus)
e|-------------|-------------|------------------|------------------------|
B|-------------|-------------|------------------|-------0-0--------0-----|
G|-------------|--7------6---|------------------|-------0-0--------0-----|
D|--7----------|-------------|--7---------9--9--|-x-x-x------x-x-x-------|
A|--8----------|--5------4---|--8---------9--9--|-x-x-x------x-x-x-------|
E|--5----------|-------------|--5---------7--7--|-x-x-x------x-x-x-------|

play 10x
e|--------------------------|
B|--------------------------|
G|--------------------------|
D|-7-7-5-7---7-7-5-7---7-7--|
A|-7-7-5-7---7-7-5-7---7-7--|
E|-5-5-3-5---5-5-3-5---5-5--|


Guitar Break (similar to Chorus)
e|-------------------|-----------------|-----------------|-----------------|
B|-------------------|-----------------|-----------------|-----------------|
G|-------------------|--------------9\-|--7TP-----9TP----|--10TP---12TP----|
D|--0--0--0----------|-----------------|-----------------|-----------------|
A|--0--0------4---4--|--7--7--7--8--7\-|--5TP-----7TP----|--8TP----10TP----|
E|--------4b5-5---5--|--5--5--6--6-----|-----------------|-----------------|


Play Chorus for 12 bars, then

Play Main riff with no repeats, like this (3:21)
E|--------------------|-------------------|-------------------|-------------------|
B|--------------------|-------------------|-------------------|-------------------|
G|--------------------|-------------------|-------------------|-------------------|
D|--0---0---0---------|-0---0---0-----2/3-|--0---0---0--------|-0---0---0---0---0-|
A|--1---0---0---3-2---|-0---4---4-----2/3-|--1---0---0---3-2--|-0---4---4---0---1-|
E|--1---1---1---3-3---|-------------------|--1---1---1---3-3--|-------------------|


while Guitar 1 plays Verse Riff 2 to end song, Guitar 2 plays:

Ending (w/ misc. string scratches and noise)
e|------------------|---------|
B|------------------|---------|
G|------------------|---------|
D|------------------|---------| play this 4x to end
A|--5___/7----------|---------|
E|-------------4~~~-|-(4)-----|


Key:
h  - hammer on
p  - pull off
b  - bend
r  - release
/  - slide up 
\  - slide down
~  - vibrato
x  - muted strings
() - hold note into next bar or rhythm 
comments
We did not receive enough feedback on this tab! Please rate:
print report bad tab
1 2 3 4 5
I want to post or [tab]
guest
You may want to rate the tab now too:
select rating
Please do not post tabs as comments. Select "correction" instead!