Oops, an error
Loading. Please wait.

Flesh And Bone bass

version 2
version 2

Whole song

Interactive

1,330 views 1 this week
no commentswrite comment
1 2 3 4 5
x 3
add to favorites
×
Save as Personal and add changes to this tab that will be seen only by you. Learn more ›
×
You can save this tab as Personal to edit and correct it or add notes. All changes will be seen only by you. Learn more »
launch autoscroll
font size
0
reset
guitar tuner
edit
Autoscroll
slow
fast
+/-
esc
set tempo
stop
Author
Difficulty
Some of the other tabs for this song i've seen are a little off.
 Hopefully this is a bit more accurate.

# in ( ) = harmonic
* = see note below staff

intro- slap the regular notes, strum the double stops and pluck the harmonics
G|------------------2-2h4----2-2h4----2-2h4----2-2h4--(7)--2-2h4---------------|
D|------------------2-2h4----2-2h4----2-2h4----2-2h4--(7)--2-2h4---------------|
A|--------0-2-0h2--------------------------------------------------------------|
E|--0-2-3----------------------------------------------------------------------|


G|--2-2h4----------|
D|--2-2h4----------|
A|-------------0-2-|
E|---------2-3-----|

verse x4

throughout the verse, slap the regular notes, finger the harmonics normally
G-----(7)-----------(7)----------(7)-------------(7)-------------|
D--------(5)-----------(5)----------(7)-------(7)----(7)---------|
A-*0h2-----------------------------------------------------------|
E-------------0h5h7--------0h5h7--------0h5h7------------0h5h7---|
    *first time only

Chorus- listen to the song for the exact rhythm, finger all notes
G|-----------------------------------------------------------------------------|
D|-----------------------------------------4---------4---------5---------------|
A|--5-5-55-5555-55-00000000-1111-33/*------------------------------------------|
E|-------------------------------------2222--222-2222--222-3333--333-22222222--|
*slide randomly up the neck

G|------------------------------------|
D|------------------------------------|
A|-2-22-22-22-2222--00000000-44444444-|
E|------------------------------------|

   Pre verse_ strum chords, slap regular notes
G|--2h4----2-2h4----2-2h4----2-2h4--------------|
D|--2h4----2-2h4----2-2h4----2-2h4--------------|
A|--------------------------------------0-2-0h2-|
E|----------------------------------2-3---------|

Verse again
Chorus 2 is the same as chorus 1, but the part with the octaves (starting at E-2-) repeats once

bridge - finger regular notes, strum mutes/double stops

G|----------------------------x-xx--2h4-x-xx--------------------------|
D|----------------------------x-xx--2h4-x-xx--------------------------|
A|--5-----------------0--0h2--x-xx------x-xx--2----0----------0-2-0-2-|
E|-----5--3--2--0-2-3---3-----x-xx------x-xx-----2----0--0-2-3--------|

G|-x-xx-2h4-x-xx----------------------------x-xx-2h4-|
D|-x-xx-2h4-x-xx----------------------------x-xx-2h4-|
A|-x-xx-----x-xx--5-----------------0---0h2-x-xx-----|
E|-x-xx-----x-xx-----5--3--2--0-2-3---3-----x-xx-----|

Listen for timing on the slides
G|------------------------------------------|
D|---(5)---*--4/5---------------------------|
A|-2----(5)-0-----5/9--3/7--2-4-5-0-5-4-2---|
E|------------------------------------------|
 *repeat everything after the asterisk (*) for the rest of the bridge

Verse again

For the final chorus, play through all of chorus 1, then repeat the ending (starting at the E-2-)
as needed.

end on:

G|-------------------|
D|---(5)------4/5----|
A|-2----(5)-0--------|
E|-------------------|

hope you found this helpful/accurate. corrections and comments are welcome

            
            
Suggest correction
Creating personal tab
Creating personal tab
You can edit any tab online and save it as your Personal.

You can edit, replace or remove any tab part or add personal notes – all changes will be seen only by you.

Personal tabs can be accessed anytime from any device, even offline.
Learn more »
Give kudos to tab author, rate the tab!
1 2 3 4 5
comments
print report bad tab
guest
You may want to rate the tab now too:
select rating
Wanna post a correction for this tab? Suggest correction