Oops, an error
Loading. Please wait.

Let Em Know intro tab

370 views 1 this week
no commentswrite comment
1 2 3 4 5
2 more votes to show rating
add to favorites
×
Save as Personal and add changes to this tab that will be seen only by you. Learn more ›
×
You can save this tab as Personal to edit and correct it or add notes. All changes will be seen only by you. Learn more »
launch autoscroll
font size
0
reset
how to read this tab
guitar tuner
edit
Autoscroll
slow
fast
+/-
esc
set tempo
stop
----------------------------------------------------------------------------
                             Alien Ant Farm - Let Em Know
----------------------------------------------------------------------------
Tabbed by: SuperFun_NHappy
E-mail: superfunhappyslide2@hotmail.com

Note: I dont know the chords for the bridge sorry. Also for the chorus, Terry DOESNT 
play chords for some parts(judging from a live show i saw on youtube) sorry D:



Tuning: Standard
      (0:00-0:25) Play nothing at all! Bass Plays

e|----------------------------------------------------------------------------|
B|----------------------------------------------------------------------------|
G|----------------------------------------------------------------------------|
D|----------------------------------------------------------------------------|
A|----------------------------------------------------------------------------|
E|----------------------------------------------------------------------------|
      (0:26-0:38)                          |-- They use a delay i think-------| (x2)
e|-----------------------------------------|----------------------------------|
B|----------------------------------------------------------------------------|
G|--5-5--7-7------9-9-10-10----------------14-------Let-It-Ring-Out-----------|
D|--x-x--x-x------x-x--x--x-----------------x(x8)-----------------------------|
A|--3-3--5-5------7-7--8--8----------------12---------------------------------|
E|----------------------------------------------------------------------------|
      (0:39-1:07)                                  (x2) Play This At the End of the Chorus
e|-------------|---------------------------------------|--------------------|
B|-------------|---------------------------------------|--------------------|
G|----Pause----|---------------------------------------|--------------------|
D|-------------|--7---------5---------3--------12------|--------------------|
A|-------------|--7(x16)----5(x16)----3(x16)---12(x16)-|--------------------|
E|-------------|--5---------3---------1--------10------|-12-0-0-10-0-0-8-7--|
      (1:08-1:13)                                  
           This Part is Most likely Wrong
e|-----------------------------------------------------|--------------------|
B|--------------------------------------------------------------------------|
G|-----------------------------------------------------19-------------------|
D|----CLAP-CLAP-CLAP-----STOP CLAPPING AND PLAY---------x(x8)---------------|
A|-----------------------------------------------------17-------------------|
E|--------------------------------------------------------------------------|
      (1:14-1:26) After Dryden says something like "the worlds gonna shyt on u" (at 
1:19) play muted notes (x32)
(aim around the bottom half of teh strings)
e|------x-x-x---------------------------------------------------------------|
B|------x-x-x------------------------------------------------5*-------------|
G|------x-x-x------------------------------------------------5*-------------|
D|------x-x-x---------------------------------------------------------------|
A|------x-x-x-etc-----------------------------------------------------------|
E|------x-x-x---------------------------------------------------------------|

     (1:27-1:39)                                                         (x2)
e|--------------------------------------------------------------------------|
B|--------------------------------------------------------------------------|
G|--5-5--7-7------9-9-10-10----------------14-------Let-It-Ring-Out---------|
D|--x-x--x-x------x-x--x--x-----------------x(x8)---------------------------|
A|--3-3--5-5------7-7--8--8----------------12-------------------------------|
E|--------------------------------------------------------------------------|

     (1:40-2:08)                                   (x2)  Do the riff again here
e|-------------|----------------------------------------|-------------------|
B|-------------|----------------------------------------|-------------------|
G|----Pause----|----------------------------------------|-------------------|
D|-------------|--7---------5---------3---------12------|-------------------|
A|-------------|--7(x16)----5(x16)----3(x16)----12(x16)-|-------------------|
E|-------------|--5---------3---------1---------10------|-12-0-0-10-0-0-8-7-|

Repat the Verse Riff for the first part of the Bridge but that is what i know so far... 
ill try and see if i can work it out ASAP

************************************

| /   slide up
| \   slide down
| h   hammer-on
| p   pull-off
| ~   vibrato
| *   harmonic
| x   Mute note
| b   Bend
| pb  Pre-bend
| br  Bend release
| pbr Pre-bend release
| brb Bend release bend

************************************

            
            
Suggest correction
Creating personal tab
Creating personal tab
You can edit any tab online and save it as your Personal.

You can edit, replace or remove any tab part or add personal notes – all changes will be seen only by you.

Personal tabs can be accessed anytime from any device, even offline.
Learn more »
Give kudos to tab author, rate the tab!
1 2 3 4 5
comments
print report bad tab
guest
You may want to rate the tab now too:
select rating
Wanna post a correction for this tab? Suggest correction