Oops, an error
Loading. Please wait.

Movies bass

version 2
version 2

Whole song

Interactive

9,117 views 9 this week
3 commentsread comments
1 2 3 4 5
x 6
add to favorites
×
Save as Personal and add changes to this tab that will be seen only by you. Learn more ›
×
You can save this tab as Personal to edit and correct it or add notes. All changes will be seen only by you. Learn more »
launch autoscroll
font size
0
reset
guitar tuner
edit
Autoscroll
slow
fast
+/-
esc
set tempo
stop
Author
Difficulty
Band: Alien Ant Farm
Song: Movies
Album: ANThology
Tabbed By: Dave Sheehan (daveys14@hotmail.com)

This tab was based on "bass guy"'s original tab, though I've reworked practically all of 
except the verse
and there was only a slight change in the chorus.

G|---------------------------------------|
D|---------------------------------------|
A|--12//---------------------------------|
E|---------------------------------------|
B|---------------------------------------|

                                      x5
G|------------------------|---------------|
D|--7-----------7---------|--7------------|
A|----0-67--------0-67----|----0-67-------|
E|---------0-0---------0--|---------------|
B|------------------------|---------------|

G|----------------------|
D|--7-------------------|
A|----0-67-77-12///////-|
E|----------------------|
B|----------------------|


========
CHORUS
========
                                         x2
G|------------------------------------------|
D|------------------------------------------|
A|---------------------23-------------------|
E|--555555--4--222/5------0000000--4444444--|
B|------------------------------------------|


After FIRST chorus -

G|-------------|
D|-------------|
A|-------------|
E|-5~~~~~~~~~--|
B|-------------|


======
VERSE
=====

               x2                       x2              x1
G|---------------|------------------------|---------------|
D|--7------------|--7-----------7---------|--7------------|
A|----0-67-------|----0-67--------0-67----|----0-67-------|
E|---------------|---------0-0---------0--|---------------|
B|---------------|------------------------|---------------|

G|----------------------|
D|--7-------------------|
A|----0-67-77-12///////-|
E|----------------------|
B|----------------------|

======
BRIDGE
======

G|--------------------------------------------------------------|
D|--------------------------------------------------------------|
A|-444444444-7777-----------------------------------------------|
E|----------------777777777-9999-444444444-5555-777777777-0000--|
B|--------------------------------------------------------------|

The notes are pretty fast, so you'll just have to listen to the rhythm.
I've tried to give an idea as best I can, though I am sort of rushing this tab - sorry :)

========
CHORUS
========
                                         x3
G|------------------------------------------|
D|------------------------------------------|
A|---------------------23-------------------|
E|--555555--4--222/5------0000000--4444444--|
B|------------------------------------------|

After SECOND chorus -

G|------------9-|
D|------------9-|
A|-12-11-9~~--7-|
E|------------0-|
B|--------------|

========
BRIDGE 2 ("In our short film")
========


G|--------------------------|
D|--------------------------|
A|----------------444444444-|
E|-00-4-5----00-4-----------|
B|--------------------------|

G|-----------------------------------------|
D|-----------------------------------------|
A|-44444-77--------------------------------|
E|----------777777-99-444444-55-777777-000-|
B|-----------------------------------------|

G|----------------------------------|
D|----------------------------------|
A|-4444444444444444444444-12//////--|
E|----------------------------------|
B|----------------------------------|

=====
OUTRO
=====
                                          x3
G|------------------------------------------|
D|------------------------------------------|
A|---------------------23-------------------|
E|--555555--4--222/5------0000000--4444444--|
B|------------------------------------------|

After LAST chorus

G|------------9~~---------------------16---------|
D|------------9~~-11-9----------16h18----18~~-14-|
A|-12-11-9~~--7~~------11-7----------------------|
E|------------0~~-----------0--------------------|
B|-----------------------------------------------|

            
            
Suggest correction
Creating personal tab
Creating personal tab
You can edit any tab online and save it as your Personal.

You can edit, replace or remove any tab part or add personal notes – all changes will be seen only by you.

Personal tabs can be accessed anytime from any device, even offline.
Learn more »
comments
print report bad tab
3 comments total.
0 reply
Ender242 10 Jan 25, 2008 08:08 PM

closer then anything else on here... but still wrong

0 reply
yevveh 1,082 May 17, 2008 06:58 AM

I've since played this song to check up on what I could figure out that wasn't right - the only thing I could find is that he plays the A in the verse an octave lower than I've written.

If you could post where I went wrong I'd appreciate it, cos I think this tab is worth at least 4/5. Cheers

0 reply
tomgodfrey 72 Aug 13, 2011 12:59 PM

love the ending :) over all good job man

guest
You may want to rate the tab now too:
select rating
Wanna post a correction for this tab? Suggest correction