Oops, an error
Loading. Please wait.

Nova Hands Tab

206 views 1 this week
1 commentread comment
1 2 3 4 5
excellent!
x 1
add to favorites
launch autoscroll
font size
0
reset
how to read this tab
guitar tuner
Tab Pro tools
  • play this tab
  • loop segment
  • change instrument
  • show fretboard
  • metronome
Autoscroll
slow
fast
+/-
esc
set tempo
stop
Contributor
Alien Ant Farm
Nova Hands
Greatest Hits
Tabbed from Rock AM Ring 02

Tuning:Standard

Intro....only shows first 10 seconds...the rest is the same
e|-------------------------------------------------------------------------|
B|-------------------------------------------------------------------------|
G|---------------------12-12-12-12-----------------------------12-12-12-12-|
D|-12-12-12-12-14b-12~-------------15b-12~-12-12-12-12-14b-12~-------------|
A|-------------------------------------------------------------------------|
E|-------------------------------------------------------------------------|
   ------PM---         -----PM----          ----PM----          ---PM---

Interlude
e|-------------------------------------------------------------------------|
B|-------------------------------------------------------------------------|
G|-------------------------------------------------------------------------|
D|---7---5-4-4-------------------------------------------------------------|
A|-0-7-4-5-4-4-------------------------------------------------------------|
E|-0-5-4-3-2-2-------------------------------------------------------------|


Verse listen for timming...all palm muted
e|-------------------------------------------------------------------------|
B|-------------------------------------------------------------------------|
G|-------------------------------------------------------------------------|
D|-5-5-5-5-5-5-5-5-5-5-5-5-------------------------------------------------|
A|-7-7-7-8-8-7-7-6-6-6-0-0-------------------------------------------------|
E|-------------------------------------------------------------------------|


Verse...."on the great time oh stye"
e|-------------------------------------------------------------------------|
B|-------------------------------------------------------------------------|
G|-------------------------------------------------------------------------|
D|-5-5-5-5-5-5-5-5-5-5-----------------------------------------------------|
A|-7-7-7-8-8-9-9-6-6-7-----------------------------------------------------|
E|-------------------------------------------------------------------------|

Verse...."got it in my eye"...Terry uses delay here but you can play it like this if you dont.
e|-------------------------------------------------------------------------|
B|-------------------------0--15b------------------------------------------|
G|-------------------------0-------------------------------14b-------------|
D|-------------------------0-----------------------------------------------|
A|-------------------------0-----------------------------------------------|
E|-12h12-12h13-14h15-14h15--------12h13-12h13-14h15-14h15------------------|

Chorus..strumming not shown   second time on tab goes for "Heaven pray to want me."
e|-------------------------------------------------------------------------|
B|-------------------------------------------------------------------------|
G|--------------------------7/----10---------------------------------------|
D|-3----3-4-3-6-5--------3--x------x---3-4-3-6-5---------------------------|
A|-3----3-4-3-6-5-4------3--5/-----8---3-4-3-6-5---------------------------|
E|-1----1-2-1-4-3-4------1-------------1-2-1-4-3---------------------------|


Bridge: heavy dist. w/ flanger
B|-------------------------------------------------------------------------|
G|-------------------------------------------------------------------------|
D|-6-6-6-7-7-7-7--8--8--8-7-7-7-6-6-6-6--repeat----------------------------|
A|-7-7-7-8-9-9-9-10-10-10-9-9-9-7-8-8-7-------------------------------------
E|-0-0-0------------------------0-0-0-0------------------------------------|

Second part of bridge

e|-------------------------------------------------------------------------|
B|-------------------------------------------------------------------------|
G|-------------------------------------------------------------------------|
D|3-4-4---4-5-5-5-5-4-4-4-4---3-3-0-3---3-3---3----------------------------|
A|3-4-4-0-4-5-5-5-5-4-4-4-4-0-3-3-0-3-0-3-3-0-3----------------------------|
E|1-2-2-0-2-3-3-3-3-2-2-2-2-0-1-1-0-1-0-1-1-0-1----------------------------|


Leading into 3rd part...."trust me trust me"
e|-------------------------------------------------------------------------|
B|-----------0-------------------------------------------------------------|
G|-----------0-------------------------------------------------------------|
D|-----------0-4--5--3-----------------------------------------------------|
A|-2-2-2-3-1---4--3--3-----------------------------------------------------|
E|-------------2--3--1-----------------------------------------------------|

End part of Trust me
e|-------------------------------------------------------------------------|
B|-------------------------------------------------------------------------|
G|-------------------------------------------------------------------------|
D|-4--6-5-5----------------------------------------------------------------|
A|-2--6-5-5----------------------------------------------------------------|
E|-2--4-3-3----------------------------------------------------------------|
        PM

Verse

Chorus

End





| /  slide up
| \  slide down
| h  hammer-on
| p  pull-off
| ~  vibrato
| +  harmonic
| x  Mute note
comments
We did not receive enough feedback on this tab! Please rate:
print report bad tab
1 2 3 4 5
1 comment total.
0 reply
AAF_rules wrote on August 23 2006, 11:42 am

Note: the 14 bend on the 2 string (end verse part) is on the 3rd string....my mistake

I want to post or [tab]
guest
You may want to rate the tab now too:
select rating
Please do not post tabs as comments. Select "correction" instead!