Oops, an error
Loading. Please wait.

Quiet Tab

912 views 1 this week
no commentswrite comment
1 2 3 4 5
please rate
add to favorites
launch autoscroll
font size
0
reset
how to read this tab
guitar tuner
Tab Pro tools
  • play this tab
  • loop segment
  • change instrument
  • show fretboard
  • metronome
×
Best way to learn
"Quiet"
Autoscroll
slow
fast
+/-
esc
set tempo
stop
Contributor
Band- Alien Ant Farm
Song- Quiet

Standard Tuning (Eadgbe)

Intro:[distorted]
e|------------|
b|-7-7-7-7----|
g|-7-7-7-7----|
d|--9-9-9-9---|
a|------------|
E|------------| X4

Verse:[guitar 1]                        Verse:[second time/guitar2]
e|----------------------------------    e|----10-------10-------10------10----|
b|-7-7-7-7-7-7-7-7-7-7-7-7-7-7-7-7--    b|-12-------11----12-10-------8----12-|
g|-7-7-7-7-7-7-7-7-7-7-7-7-7-7-7-7--    g|-------11----------------11---------|
d|--9-9-9-9-8-8-8-8-7-7-7-7-5-5-5-5-    d|------------------------------------|
a|----------------------------------    a|------------------------------------|
E|----------------------------------    E|------------------------------------|

Pre-Chorus:
e|-------------------------------------------------|
b|-12-12-12-12-12-12-12-12-12-12-12-12-12-12-12-12-|
g|-12-12-12-12-11-11-11-11-9--9--9--9--7--7--7--7--|
d|-------------------------------------------------|
a|-------------------------------------------------|
E|-------------------------------------------------|

Chorus:
e|----------------------------------------------------------------------------|
b|----------------------------------------------------------------------------|
g|----------------------------------------------------------------------------|
d|--------------------------------4-------------------------------------------|
a|-5----5---5-------7---7---7---7---5---5---5---5--4---4---4---4--------------|
E|----7---7---7-6-5---5---5---4-------3---3---3------4---4---4---4------------|

Chorus Part 2:                            Other fill before that:
e|----------------------------------2-3--  e|----------------------------|
b|----------------------------------2-3--  b|----------------------------|
g|----------------------------------2-4--  g|----------------------------|
d|--------------------------------4-4-5--  d|----------------------------|
a|-5----5---5-------7---7---7---7---4-5--  a|-4-4-5-7-7------------------|
E|----7---7---7-6-5---5---5---4-----2-3--  E|-2-2-3-5-5------------------|

Verse Fill In:[I don't care to exact]
e|------------------------------------|
b|------------------------------------|
g|-9b-7h9p7---7-----------------------|
d|----------9---9p7---------9\--------|
a|------------------9-7---------------|
E|-----------------------7------------|

Bridge:
e|----------------------------------------------------------------------------|
b|(555-555-55)-----------------------(555-555-55)-----------------------------|
g|-666-666-66--6/7-777-6666-9999-7777-666-666-66-7777-666-9\7-7-11(7)12-12-12-|
d|-555-555-55-------------------------555-555-55------------------------------|
a|-444-444-44-------------------------444-444-44-5555-444-7\5-5--9(5)10-10-10-|
E|-444-444-44-------------------------444-444-44------------------------------|

e|----------------------------------------------------------------------------|
b|(555-555-55)------8h10b-----8h10b----8h10-(555-555-55-555-5555-5555)--------|
g|-666-666-66--5h7b-------5h7b-----5h7b------666-666-66-666-6666-6666---------|
d|-555-555-55--------------------------------555-555-55-555-5555-5555---------|
a|-444-444-44--------------------------------444-444-44-444-4444-4444---------|
E|-444-444-44--------------------------------444-444-44-444-4444-4444---------|
comments
We did not receive enough feedback on this tab! Please rate:
print report bad tab
1 2 3 4 5
I want to post or [tab]
guest
You may want to rate the tab now too:
select rating
Please do not post tabs as comments. Select "correction" instead!