Oops, an error
Loading. Please wait.

Repeat Defender Tab

140 views 1 this week
no commentswrite comment
1 2 3 4 5
2 more votes to show rating
add to favorites
launch autoscroll
font size
0
reset
how to read this tab
guitar tuner
Autoscroll
slow
fast
+/-
esc
set tempo
stop
Help us to improve Ultimate-Guitar.com Take our survey!
×
Author
Alien Ant Farm
Repeat Defender
Up in the Attic (Best Buy bonus track)

Standard tuning

Intro/Verse...intro the longer set of 2's are just x's
e|-------------------------------------------------------------------------|
B|-----3-3-2-2-2-2---------------------3-3-2-2-2-2------0-0------0-0-------|
G|-----2-2-2-2-0-0---------------------2-2-2-2-0-0------0-0------0-0-------|
D|------------------------------------------------------7-7------5-5-------|
A|-2-2-------------2-2-2-2-2-2-2-0-2-2------------------0-0------0-0-------|
E|--------------------------------------------------5-5-5-5--3-3-3-3-------|
   PM              ---PM--------------              PM       PM

Interlude
e|-------------------------------------------------------------------------|
B|-------------------------------------------------------------------------|
G|-------------------------------------------------------------------------|
D|-2-----5-----8-----------------------------------------------------------|
A|-2-----5-----8-----------------------------------------------------------|
E|-0-----3-----6-----------------------------------------------------------|

Chorus Gtr 1 dist.
e|-------------------------------------------------------------------------|
B|-------------------------------------------------------------------------|
G|-7-----4-----------------------------------------------------------------|
D|-7-----4-----5-4-2-0--2-4-0-2--------------------------------------------|
A|-5-----2-----------------------------------------------------------------|
E|-------------------------------------------------------------------------|

Chorus gtr 2 clean
e|-------------------------------------------------------------------------|
B|---------------------3-------3-------------------------------------------|
G|-----7-------7---------4-------4-----------------------------------------|
D|---7---7---7---7---4-------4---------------------------------------------|
A|-5-------5-------2-------2-----------------------------------------------|
E|-------------------------------------------------------------------------|

Small piece before 2nd verse
e|-------------------------------------------------------------------------|
B|-----------0-------------------------------------------------------------|
G|-----------0-------------------------------------------------------------|
D|-----------0-------------------------------------------------------------|
A|-7-5-4-5-7---------------------------------------------------------------|
E|-------------------------------------------------------------------------|

Bridge Gtr1 clean w/ delay 
e|-------------------------------------------------------------------------|
B|-12\--10-12\-------------------------------------------------------------|
G|------11-----------------------------------------------------------------|
D|-------------------------------------------------------------------------|
A|-------------------------------------------------------------------------|
E|-------------------------------------------------------------------------|

Bridge Gtr2 clean
e|-------------------------------------------------------------------------|
B|-----------------------------0------0------------------------------------|
G|-----7-6----------7-6--------0------0------------------------------------|
D|---9------------9------------7------5------------------------------------|
A|-7-------7----7-------7------0------0------------------------------------|
E|-------------------------5-5-5--3-3-3------------------------------------|
                            PM    PM

after chorus leading into 2nd bridge
e|-------------------------------------------------------------------------|
B|-------------------------------------------------------------------------|
G|-------------------------------------------------------------------------|
D|--5-4-2-0-----0-2-4-5-7-9------------------------------------------------|
A|----------2-4------------------------------------------------------------|
E|-------------------------------------------------------------------------|

2nd bridge...pick back and forth
e|-------------------------------------------------------------------------|
B|-------------------------------------------------------------------------|
G|--4----------------------------------------------------------------------|
D|----5--------------------------------------------------------------------|
A|-------------------------------------------------------------------------|
E|-------------------------------------------------------------------------|


Ending
e|-------------------------------------------------------------------------|
B|-----0------0------------------------------------------------------------|
G|-----0------0------------------------------------------------------------|
D|-----5------4------------------------------------------------------------|
A|-----0------0------------------------------------------------------------|
E|-3-3-3--2-2-2------------------------------------------------------------|
    PM    PM
| /  slide up
| \  slide down
| h  hammer-on
| p  pull-off
| ~  vibrato
| +  harmonic
| x  Mute note
===============================================================================
Suggest correction
Give kudos to tab author, rate the tab!
1 2 3 4 5
comments
print report bad tab
guest
You may want to rate the tab now too:
select rating
Wanna post a correction for this tab? Suggest correction