Oops, an error
Loading. Please wait.

Sleepwalker Tab

1,861 views 1 this week
no commentswrite comment
1 2 3 4 5
please rate
add to favorites
launch autoscroll
font size
0
reset
how to read this tab
guitar tuner
Tab Pro tools
  • play this tab
  • loop segment
  • change instrument
  • show fretboard
  • metronome
×
Best way to learn
"Sleepwalker"
Autoscroll
slow
fast
+/-
esc
set tempo
stop
Contributor
Alien Ant Farm
Sleepwalker
Up in the Attic


Tried my best...but it's the closest that I can get

Tuning:Standard

Intro/verse  strumming not shown
e|-------------------------------------------------------------------------|
B|-------------------------------------------------------------------------|
G|-------------------------------------------------------------------------|
D|-5---------4---------5-------5-------------------------------------------|
A|-7---------5---------7-------0-------------------------------------------|
E|-------------------------------------------------------------------------|
  --------PM---------------------

First chorus: strumming not shown

  Sleepwalker   I      Feel     Its      Me    And      It  
e|-0-----------------------------------------------------------------------|
B|-0------------3----------------------------------------------------------|
G|-0------------2------2---------------------------------------------------|
D|-2------------0------4--------5--------4------4-------2------------------|
A|-2------------0------0--------7--------0------5-------x------------------|
E|-0----------------------------------------------------3------------------|


  Sleepwalker   I      Feel     Its      Me    And      haunted  
e|-0-----------------------------------------------------------------------|
B|-0------------3----------------------------------------------------------|
G|-0------------2------2---------------------------------------------------|
D|-2------------0------4--------5--------4------7---------9----------------|
A|-2------------0------0--------7--------0------x---------x----------------|
E|-0--------------------------------------------8--------10----------------|

  Little part leading to second verse
e|----------0--------------------------------------------------------------|
B|----------0--------------------------------------------------------------|
G|----------9--------------------------------------------------------------|
D|----------9--------------------------------------------------------------|
A|-7-7-7-7--7--------------------------------------------------------------|
E|-0-0-0-0-----------------------------------------------------------------|
  ---PM---
Leading into 2nd chorus...strum
e|-------------------------------------------------------------------------|
B|-0-----------------------------------------------------------------------|
G|-0-----------------------------------------------------------------------|
D|-6-----------------------------------------------------------------------|
A|-0-----------------------------------------------------------------------|
E|-------------------------------------------------------------------------|

2nd Chorus:strumming not shown
note: when muting the strings...don't fulling mute so you can still get the harmonic tone

  Dead   Awake  Always  Be          Right      With
e|-7--x-------x------------------------------------------------------------|
B|-8--x-------x------------------------------------------------------------|
G|-9--x---7---x---------------------------------7--------------------------|
D|-9--x---4---x--5-------5-4-4-4-----5----------4--------------------------|
A|-7--x---5---x--4-------5-5-5-5-----2----------5--------------------------|
E|-7-------------5-------------------3-------------------------------------|

Bridge 
e|------5---4--------------------------------------------------------------|
B|------5---5--------------------------------------------------------------|
G|-9----7---6--------------------------------------------------------------|
D|-9----7---6--------------------------------------------------------------|
A|-7----5---4--------------------------------------------------------------|
E|-------------------------------------------------------------------------|

strumming not shown
e|-------------------------------------------------------------------------|
B|-------------------------------------------------------------------------|
G|---------12---11--9---11--12---------------------------------------------|
D|----------x---x---x---x----x----------repeat-octaves---------------------|
A|-3-3-3---10---9---7---9---10--4-4-4--------------------------------------|
E|-3-3-3------------------------4-4-4--------------------------------------|

End of bridge leading into chorus
e|-------------------------------------------------------------------------|
B|-------------------------------------------------------------------------|
G|-12----14----------------------------------------------------------------|
D|--x-----x----------------------------------------------------------------|
A|-10----12----------------------------------------------------------------|
E|-------------------------------------------------------------------------|



comments
We did not receive enough feedback on this tab! Please rate:
print report bad tab
1 2 3 4 5
I want to post or [tab]
guest
You may want to rate the tab now too:
select rating
Please do not post tabs as comments. Select "correction" instead!