Oops, an error
Loading. Please wait.
We have an official Smooth Criminal tab made by UG professional guitarists. Check out the tab »
×
2,504 views 6 this week
1 commentread comment
1 2 3 4 5
1 last vote to show rating
add to favorites
×
Save as Personal and add changes to this tab that will be seen only by you. Learn more ›
×
You can save this tab as Personal to edit and correct it or add notes. All changes will be seen only by you. Learn more »
launch autoscroll
font size
0
reset
guitar tuner
backing track
0:00
0:00
edit
Autoscroll
slow
fast
+/-
esc
set tempo
stop
Author
Alien Ant Farm: Smooth Criminal 

G||-------------------|----------------------------|
D||-------------------|----------------------------|
A||----------------0--|----0-0-0-0---0-2--2----0-2-|
E||-------------------|------------3---------------|


                                                       
-------------------------|----------------------------|
-------------------------|----------------------------|
--3--3----3-3-2-------0--|----0-0-0-0---0-2--2----0-2-|
-----------------3-------|------------3---------------|


                                                       
-------------------------|----------------------------|
-------------------------|----------------------------|
--3--3----3-3-2-------0--|----0-0-0-0---0-2--2----0-2-|
-----------------3-------|------------3---------------|


                                                       
-------------------------|----------------------------|
-------------------------|----------------------------|
--3--3----3-3-2-------0--|----0-0-0-0---0-2--2----0-2-|
-----------------3-------|------------3---------------|


                                                       
-------------------------|----------------------------|
-------------------------|----------------------------|
--3--3----3-3-2-------0--|----0-0-0-0---0-2--2----0-2-|
-----------------3-------|------------3---------------|


                                                       
-------------------------|----------------------------|
-------------------------|----------------------------|
--3--3----3-3-2-------0--|----0-0-0-0---0-2--2----0-2-|
-----------------3-------|------------3---------------|


                                                       
-------------------------|----------------------------|
-------------------------|----------------------------|
--3--3----3-3-2-------0--|----0-0-0-0---0-2--2----0-2-|
-----------------3-------|------------3---------------|


                                                       
-------------------------|----------------------------|
-------------------------|----------------------------|
--3--3----3-3-2-------0--|----0-0-0-0---0-2--2----0-2-|
-----------------3-------|------------3---------------|


                                                                         
-------------------------|----------------------|-----------------------|
-------------------------|-----3---------3------|-----3-----------------|
--3--3----3-3-2----------|----------------------|-----------------------|
-----------------3----1--|--1---------1---------|--1---------3--3----1--|


                                                                    
----------------------|---------------------|----------------------|
-----3---------3------|---------------------|-----3---------3------|
----------------------|---------------------|----------------------|
--1---------1---------|----------3--3----1--|--1---------1---------|


                                                                    
--------------------|----------------------|-----------------------|
--------------------|-----3---------3------|-----------------------|
--------------------|----------------------|--------------------0--|
----------3------1--|--1---------1---------|--0--------3--0--3-----|


                                                        
----------------------------|--------------------------|
----------------------------|--------------------------|
----0-0-0-0-0-0-------------|-----------------------0--|
----------------3--3----3-3-|--1--1----1-1-3--0--3-----|


                                                        
----------------------------|--------------------------|
----------------------------|--------------------------|
----0-0-0-0-0-0-------------|-----------------------0--|
----------------3--3----3-3-|--1--1----1-1-3--0--3-----|


                                                        
----------------------------|--------------------------|
----------------------------|--------------------------|
----0-0-0-0-0-0-------------|-----------------------0--|
----------------3--3----3-3-|--1--1----1-1-3--0--3-----|


                                                                               
----------------------------|--------------------------|-------------------|
----------------------------|--------------------------|-----3---------3---|
----0-0-0-0-0-0-------------|--------------------------|-------------------|
----------------3--3----3-3-|--1--1----1-1-0--0--3--1--|--1---------1------|


                                                                   
---------------------|----------------------|---------------------|
---------------------|-----3---------3------|---------------------|
---------------------|----------------------|---------------------|
----------3--3----1--|--1---------1---------|----------3--3----1--|


                                                                      
----------------------|----------------------|-----------------------|
-----3---------3------|----------------------|-----------------------|
----------------------|----------------------|-----------------------|
--1---------1---------|----------3--3--3--1--|--0--------0--0--0--0--|


                                                                                
------------------------|----------------------------|----------------------|
------------------------|----------------------------|----------------------|
---------------------0--|----0-0-0-0---0-2--2----0-2-|--3--3----3-3-2-----0-|
------0--0--3--0--3-----|------------3---------------|-----------------3----|


                                                       
----------------------------|-------------------------|
----------------------------|-------------------------|
----0-0-0-0---0-2--2----0-2-|--3--3----3-3-2-------0--|
------------3---------------|-----------------3-------|


                                                       
----------------------------|-------------------------|
----------------------------|-------------------------|
----0-0-0-0---0-2--2----0-2-|--3--3----3-3-2-------0--|
------------3---------------|-----------------3-------|


                                                                              
----------------------------|-------------------------|---------------------|
----------------------------|-------------------------|-----3---------3-----|
----0-0-0-0---0-2--2----0-2-|--3--3----3-3-2----------|---------------------|
------------3---------------|-----------------3----1--|--1---------1--------|


                                                                   
---------------------|----------------------|---------------------|
---------------------|-----3---------3------|---------------------|
---------------------|----------------------|---------------------|
----------3--3----1--|--1---------1---------|----------3--3----1--|


                                                                   
----------------------|--------------------|----------------------|
-----3---------3------|--------------------|-----3---------3------|
----------------------|--------------------|----------------------|
--1---------1---------|----------3------1--|--1---------1---------|


                                                                                
-----------------------|----------------------------|-----------------------|
-----------------------|----------------------------|-----------------------|
--------------------0--|----0-0-0-0-0-0-------------|---------------------0-|
--0--------3--0--3-----|----------------3--3----3-3-|-1--1----1-1-3--0--3---|


                                                       
----------------------------|-------------------------|
----------------------------|-------------------------|
----0-0-0-0-0-0-------------|----------------------0--|
----------------3--3----3-3-|--1--1----1-1-0----3-----|


                                                        
----------------------------|--------------------------|
----------------------------|--------------------------|
----0-0-0-0-0-0-------------|-----------------------0--|
----------------3--3----3-3-|--1--1----1-1-3--0--3-----|


                                                                               
----------------------------|--------------------------|------------------|
----------------------------|--------------------------|-----3---------3--|
----0-0-0-0-0-0-------------|--------------------------|------------------|
----------------3--3----3-3-|--1--1----1-1-0--0--3--1--|--1---------1-----|


                                                                       
---------------------|-----------------------|------------------------|
---------------------|-----------------------|------------------------|
---------------------|-----------------------|---------------------0--|
----------3--3----1--|--0--------0--0--0--0--|------0--0--3--0--3-----|


                                                       
----------------------------|-------------------------|
----------------------------|-------------------------|
----0-0-0-0---0-2--2----0-2-|--3--3----3-3-2-------0--|
------------3---------------|-----------------3-------|


                                                       
----------------------------|-------------------------|
----------------------------|-------------------------|
----0-0-0-0---0-2--2----0-2-|--3--3----3-3-2-------0--|
------------3---------------|-----------------3-------|


                                                       
----------------------------|-------------------------|
----------------------------|-------------------------|
----0-0-0-0---0-2--2----0-2-|--3--3----3-3-2-------0--|
------------3---------------|-----------------3-------|


                                                       
----------------------------|-------------------------|
----------------------------|-------------------------|
----0-0-0-0---0-2--2----0-2-|--3--3----3-3-2-------0--|
------------3---------------|-----------------3-------|


                                                       
----------------------------|-------------------------|
----------------------------|-------------------------|
----0-0-0-0---0-2--2----0-2-|--3--3----3-3-2-------0--|
------------3---------------|-----------------3-------|


                                                       
----------------------------|-------------------------|
----------------------------|-------------------------|
----0-0-0-0---0-2--2----0-2-|--3--3----3-3-2-------0--|
------------3---------------|-----------------3-------|


                                                       
----------------------------|-------------------------|
----------------------------|-------------------------|
----0-0-0-0---0-2--2----0-2-|--3--3----3-3-2-------0--|
------------3---------------|-----------------3-------|


                                                        
----------------------------|--------------------------|
----------------------------|--------------------------|
----0-0-0-0-0-0-------------|-----------------------0--|
----------------3--3----3-3-|--1--1----1-1-3--0--3-----|


                                                       
----------------------------|-------------------------|
----------------------------|-------------------------|
----0-0-0-0-0-0-------------|----------------------0--|
----------------3--3----3-3-|--1--1----1-1-0----3-----|


                                                        
----------------------------|--------------------------|
----------------------------|--------------------------|
----0-0-0-0-0-0-------------|-----------------------0--|
----------------3--3----3-3-|--1--1----1-1-3--0--3-----|


                                                        
----------------------------|--------------------------|
----------------------------|--------------------------|
----0-0-0-0-0-0-------------|--------------------------|
----------------3--3----3-3-|--1--1----1-1-0--0--3--1--|


                                                        
----------------------------|--------------------------|
----------------------------|--------------------------|
----0-0-0-0-0-0-------------|-----------------------0--|
----------------3--3----3-3-|--1--1----1-1-3--0--3-----|


                                                       
----------------------------|-------------------------|
----------------------------|-------------------------|
----0-0-0-0-0-0-------------|----------------------0--|
----------------3--3----3-3-|--1--1----1-1-0----3-----|


                                                        
----------------------------|--------------------------|
----------------------------|--------------------------|
----0-0-0-0-0-0-------------|-----------------------0--|
----------------3--3----3-3-|--1--1----1-1-3--0--3-----|


                                                       
----------------------------|-------------------------|
----------------------------|-------------------------|
----0-0-0-0-0-0-------------|----------------------0--|
----------------3--3----3-3-|--1--1----1-1-0----3-----|


                                                       
----------------------------|-------------------------|
----------------------------|-------------------------|
----0-0-0-0---0-2--2----0-2-|--3--3----3-3-2-------0--|
------------3---------------|-----------------3-------|


                                                       
----------------------------|-------------------------|
----------------------------|-------------------------|
----0-0-0-0---0-2--2----0-2-|--3--3----3-3-2-------0--|
------------3---------------|-----------------3-------|


                                                       
----------------------------|-------------------------|
----------------------------|-------------------------|
----0-0-0-0---0-2--2----0-2-|--3--3----3-3-2-------0--|
------------3---------------|-----------------3-------|


                                                                         
----------------------------|------------------------||
----------------------------|-----------------0------||
----0-0-0-0---0-2--2----0-2-|--3--3----3-3-2---------||
------------3---------------|------------------------||

            
            
Suggest correction
Creating personal tab
Creating personal tab
You can edit any tab online and save it as your Personal.

You can edit, replace or remove any tab part or add personal notes – all changes will be seen only by you.

Personal tabs can be accessed anytime from any device, even offline.
Learn more »
Give kudos to tab author, rate the tab!
1 2 3 4 5
comments
print report bad tab
1 comment total.
0 reply
TrojanWarhorse 31 Feb 01, 2010 01:40 AM

BEEJUS DUDE... HAVE YOU NEVER HEARD OF "REPEAT".. OR x16

guest
You may want to rate the tab now too:
select rating
Wanna post a correction for this tab? Suggest correction