Oops, an error
Loading. Please wait.
We have an official Smooth Criminal tab made by UG professional guitarists. Check out the tab »
×
17,742 views 6 this week
1 commentread comment
1 2 3 4 5
x 4
add to favorites
×
Save as Personal and add changes to this tab that will be seen only by you. Learn more ›
×
You can save this tab as Personal to edit and correct it or add notes. All changes will be seen only by you. Learn more »
launch autoscroll
font size
0
reset
how to read this tab
guitar tuner
backing track
0:00
0:00
edit
Autoscroll
slow
fast
+/-
esc
set tempo
stop
Author
Tabbed by Emy351
Email : EmysArt@hotmail.com
Youtube Channel : www.YouTube.com/Emy019
Me playing this song with THIS tab : http://www.youtube.com/watch?v=WCUBSXfElQE

Standard Tunning

Enjoy ! 


Intro 

e|-------------------------------------------------|
b|-------------------------------------------------|
g|-------------------------------------------------|
c|-7---7-7-7-7-9-9---9-9-10-10---10-10-10-5--------|
a|-7---7-7-7-7-9-9---9-9-10-10---10-10-10-5--------|
e|-5---5-7-5-5-7-7---7-7-8--8----8--8--8--3--------|   x4


Verse

e|-------------------------------------------------|
b|-------------------------------------------------|
g|-------------------------------------------------|
c|-7---7-7-7-7-9-9---9-9-10-10---10-10-10-5--------|
a|-7---7-7-7-7-9-9---9-9-10-10---10-10-10-5--------|
e|-5---5-7-5-5-7-7---7-7-8--8----8--8--8--3--------|   x4


Pre chorus

e|-----------------------------------------------|-------------------|
b|-----------------------------------------------|-------------------|
g|-----------------------------------------------|-------------------|
c|-3-----5-5-5---3-----5-5-5---3-----5-5-5---3---|-5---3---5---7-----|
a|-3-----5-5-5---3-----5-5-5---3-----5-5-5---3---|-5---3---5---7-----|
e|-1-----3-3-3---1-----3-3-3---1-----3-3-3---1---|-3---1---3---5-----|


Chorus

e|----------------------------------------------|    
b|----------------------------------------------|    
g|----------------------------------------------|    
c|-7-7-7-7-7-7-7-7---5-5--5-5-3-3---3-3-5-3-5---|    
a|-7-7-7-7-7-7-7-7---5-5--5-5-3-3---3-3-5-3-5---|    
e|-5-5-5-5-5-5-5-5---3-3--3-3-1-1---1-1-3-1-3---| x4 


End chorus 

e|-----------------------------------------------|
b|-----------------------------------------------|
g|-----------------------------------------------|
c|-3-----5-5-5---3-----5-5-5---3-----5-5-5---3---|
a|-3-----5-5-5---3-----5-5-5---3-----5-5-5---3---|
e|-1-----3-3-3---1-----3-3-3---1-----3-3-3---1---|


Pre Verse

e|-------------------------------------------------|
b|-------------------------------------------------|
g|-------------------------------------------------|
c|-7---7-7-7-7-9-9---9-9-10-10---10-10-10-5--------|
a|-7---7-7-7-7-9-9---9-9-10-10---10-10-10-5--------|
e|-5---5-7-5-5-7-7---7-7-8--8----8--8--8--3--------|   x2


Verse

e|-------------------------------------------------|
b|-------------------------------------------------|
g|-------------------------------------------------|
c|-7---7-7-7-7-9-9---9-9-10-10---10-10-10-5--------|
a|-7---7-7-7-7-9-9---9-9-10-10---10-10-10-5--------|
e|-5---5-7-5-5-7-7---7-7-8--8----8--8--8--3--------|   x4


Pre chorus

e|-----------------------------------------------|-------------------|
b|-----------------------------------------------|-------------------|
g|-----------------------------------------------|-------------------|
c|-3-----5-5-5---3-----5-5-5---3-----5-5-5---3---|-5---3---5---7-----|
a|-3-----5-5-5---3-----5-5-5---3-----5-5-5---3---|-5---3---5---7-----|
e|-1-----3-3-3---1-----3-3-3---1-----3-3-3---1---|-3---1---3---5-----|


Chorus

e|----------------------------------------------|    
b|----------------------------------------------|    
g|----------------------------------------------|    
c|-7-7-7-7-7-7-7-7---5-5--5-5-3-3---3-3-5-3-5---|    
a|-7-7-7-7-7-7-7-7---5-5--5-5-3-3---3-3-5-3-5---|    
e|-5-5-5-5-5-5-5-5---3-3--3-3-1-1---1-1-3-1-3---| x4 


End chorus 

e|------------------------|
b|------------------------|
g|------------------------|
c|-3-----5-5-5---3--------|
a|-3-----5-5-5---3--------|
e|-1-----3-3-3---1--------|


Pre solo

e|-------------------------------------------------|
b|-------------------------------------------------|
g|-------------------------------------------------|
c|-7---7-7-7-7-9-9---9-9-10-10---10-10-10-5--------|
a|-7---7-7-7-7-9-9---9-9-10-10---10-10-10-5--------|
e|-5---5-7-5-5-7-7---7-7-8--8----8--8--8--3--------|   x4


The "pre solo" continues (x4) while the SOLO is played : Coming Soon !!

Then : 

Chorus

e|----------------------------------------------|    
b|----------------------------------------------|    
g|----------------------------------------------|    
c|-7-7-7-7-7-7-7-7---5-5--5-5-3-3---3-3-5-3-5---|    
a|-7-7-7-7-7-7-7-7---5-5--5-5-3-3---3-3-5-3-5---|    
e|-5-5-5-5-5-5-5-5---3-3--3-3-1-1---1-1-3-1-3---| x8


End

e|-------------------------------------------------|
b|-------------------------------------------------|
g|-------------------------------------------------|
c|-7---7-7-7-7-9-9---9-9-10-10---10-10-10-5--------|
a|-7---7-7-7-7-9-9---9-9-10-10---10-10-10-5--------|
e|-5---5-7-5-5-7-7---7-7-8--8----8--8--8--3--------|   x4

            
            
Suggest correction
Creating personal tab
Creating personal tab
You can edit any tab online and save it as your Personal.

You can edit, replace or remove any tab part or add personal notes – all changes will be seen only by you.

Personal tabs can be accessed anytime from any device, even offline.
Learn more »
comments
print report bad tab
1 comment total.
0 reply
frozen_bollics 10 Jul 19, 2009 01:57 AM

im sure u have the right notes but i find it kinda hard 2 get the rythem right i dont think its like that

guest
You may want to rate the tab now too:
select rating
Wanna post a correction for this tab? Suggest correction