Oops, an error
Loading. Please wait.

Ss Recognize bass

696 views 1 this week
2 commentsread comments
1 2 3 4 5
2 more votes to show rating
add to favorites
×
Save as Personal and add changes to this tab that will be seen only by you. Learn more ›
×
You can save this tab as Personal to edit and correct it or add notes. All changes will be seen only by you. Learn more »
launch autoscroll
font size
0
reset
guitar tuner
edit
Autoscroll
slow
fast
+/-
esc
set tempo
stop
Author
hi hi. Amazing song by alien ant farm. by far my favorite. iv seen them
play this song live and for the intro you see him strumming his bass
and you can also hear it and i guess that how you play the strumming 
parts for this song. any mistakes please comment. Rate & enjoy :D
A.J

Normal Tuning

Intro *Strumming
|--5---------6----3--|--5---------8----7--|
|--5----5----6----3--|--5----5----8----7--|
|--3----5----4----1--|--3----5----6----5--| repeat till chorus
|-------3------------|-------3------------|

chorus                    x lots
|-------------------------------|------------------|
|------------2222-4444----------|-----2--------2---|
|------33333-----------44444444-|-2h4---4--2h4---4-|
|-2222--------------------------|------------------|

verse
|---------|---------------------|------------------------------|
|---------|--2222-4444----------|-----------2222-4444----------|
|------3--|------------44444444-|------3333-----------44444444-|
|-2222----|---------------------|-2222-------------------------|

|----------|---------------------|------------------------------|
|----------|--2222-4444----------|-----------2222-4444----------|
|-33-33-33-|------------44444444-|------3333-----------44444444-|
|----------|---------------------|-2222-------------------------|

|---------|---------------------|------------------------------|----|
|---------|--2222-4444----------|-----------2222-4444----------|----|
|------3--|------------44444444-|------3333-----------44444444-|-3~-|
|-2222----|---------------------|-2222-------------------------|----|

chorus                    x lots
|-------------------------------|------------------|
|------------2222-4444----------|-----2--------2---|
|------33333-----------44444444-|-2h4---4--2h4---4-|
|-2222--------------------------|------------------|


2nd verse
|-------------------------------|------------------------------|
|------------2222-4444----------|-----------2222-4444----------|
|------33333-----------44444444-|------3333-----------44444444-|
|-2222--------------------------|-2222-------------------------|

|----5----5----5-|---------------------|
|----------------|--2222-4444----------|
|-33---33---33---|------------44444444-|
|----------------|---------------------|
  tt p tt p tt p

|------------------------------|----|
|-----------2222-4444----------|----|
|------3333-----------44444444-|-3~-|
|-2222-------------------------|----|

chorus                    x lots
|-------------------------------|------------------|
|------------2222-4444----------|-----2--------2---|
|------33333-----------44444444-|-2h4---4--2h4---4-|
|-2222--------------------------|------------------|

Interlude
|------------------------|    |-------------------------|
|------------------------|    |-------------------------|
|-00-5-0-00-76-0-0----35-| x7 |-00-5-0-00-76--76------3-|
|------------------33----|    |-------------------3h5---|

|---------------------------|
|---------------------------|
|-000000-6-6-000000-6-6-6-6-| x4
|---------------------------|

guitar bit
|----|----|
|----|----|
|----|----|
|-0~-|-0~-|

*Strumming
|--9--------10----7--|--9---------12---11--|
|--9----9---10----7--|--9----9----12---11--|
|--7----9----8----5--|--7----9----10----9--| x4
|-------7------------|-------7-------------|

2nd chorus                          x4
|------5--5--5--5--|------8--8--8--8--|  Am pritty sure he plays it
|------------------|------------------|  like this. But if not,there
|-3----------------|-3----------------|  is some crazy slapping at 
|---3--------------|---3--------------|  that part
  t t  p  p  p  p    t t  p  p  p  p  

chorus                    x lots
|-------------------------------|------------------|
|------------2222-4444----------|-----2--------2---|
|------33333-----------44444444-|-2h4---4--2h4---4-|
|-2222--------------------------|------------------|

outro
|----------------------------------------------------|
|------------------------------------------------2---|
|----333333----333333----333333----333333----2h4---4-|
|-22--------22--------22--------22--------22---------|

            
            
Suggest correction
Creating personal tab
Creating personal tab
You can edit any tab online and save it as your Personal.

You can edit, replace or remove any tab part or add personal notes – all changes will be seen only by you.

Personal tabs can be accessed anytime from any device, even offline.
Learn more »
Give kudos to tab author, rate the tab!
1 2 3 4 5
comments
print report bad tab
2 comments total.
0 reply
Vaughanabe13 277 Apr 25, 2009 05:17 PM

Gave you 5 stars cause everything is pretty darn good. One correction though, I believe this line is as follows:

chorus x lots
|-------------------------------|------------------|
|------------2222-4442----------|-----2--------2---|
|------33333-----------44444444-|-2h4---4--2h4-----|
|-2222--------------------------|------------------|

Also, I don't think the slapping lick is right (as you mentioned), but it's too hard to hear anything but the pops.

0 reply
Vaughanabe13 277 Apr 25, 2009 05:18 PM

Gave you 5 stars cause everything is pretty darn good. One correction though, I believe this line is as follows:

chorus x lots
|-------------------------------|------------------|
|------------2222-4442----------|-----2--------2---|
|------33333-----------44444444-|-2h4---4--2h4-----|
|-2222--------------------------|------------------|

Also, I don't think the slapping lick is right (as you mentioned), but it's too hard to hear anything but the pops.

guest
You may want to rate the tab now too:
select rating
Wanna post a correction for this tab? Suggest correction