Oops, an error
Loading. Please wait.

Summer Tab

version 1
version 1

Whole song

Interactive

4,851 views 6 this week
1 commentread comment
1 2 3 4 5
excellent!
x 4
add to favorites
launch autoscroll
font size
0
reset
how to read this tab
guitar tuner
Tab Pro tools
  • play this tab
  • loop segment
  • change instrument
  • show fretboard
  • metronome
×
Best way to learn
"Summer"
Autoscroll
slow
fast
+/-
esc
set tempo
stop
Contributor
Difficulty
Tuning
intermediate
D# G# C# F# A# D#
Alien Ant Farm- Summer
from the Album 'Anthology'
tabbed by jjhand
Note: Eb Tuning!

I added to and corrected much of a previous tab written by omnifreak102
on mxtabs.net, and it now sounds really good, so enjoy!

Intro/ verse (with some ad-lib here & there)
Eb|------------------------------------------------|
Bb|------------------------------------------------|
Gb|-7--7-7-x-x--5--5-5-x-x--5--5-5-x-x--5--5-5-x-x-|
Db|-7--7-7-x-x--5--5-5-x-x--4--4-4-x-x--5--5-5-x-x-|
Ab|-5--5-5-x-x--5--5-5-x-x--5--5-5-x-x--5--5-5-x-x-|
Eb|------------------------------------------------|

Eb|------------------------------------------------|
Bb|------------------------------------------------|
Gb|------------------------------------------------|
Db|-3--3-3-x-x--3--3-3-x-x--8--8-8-x-x-------------|
Ab|-3--3-3-x-x--3--3-3-x-x--8--8-8-x-x--9--9-9-x-x-|
Eb|-1--1-1-x-x--1--1-1-x-x--6--6-6-x-x--5--5-5-x-x-|



Beginning of Verse:
Eb|-----------|------------------------------------------------|
Bb|-----------|------------------------------------------------|
Gb|-7---------|------------------------------------------------|
Db|-7---------|-3--3-3-x-x--3--3-3-x-x--8--8-8-x-x-------------|
Ab|-5---------|-3--3-3-x-x--3--3-3-x-x--8--8-8-x-x--9--9-9-x-x-|
Eb|-----------|-1--1-1-x-x--1--1-1-x-x--6--6-6-x-x--5--5-5-x-x-|
"So you finally fessed up to her, all the lies you said


Continue intro/verse Riff until Chorus

"Now you kindly kiss up to her
But the feeling's dead

Several days have passed now
Darker than any damn cloud now
Liquid sunshine falls down
Harder than all the damn hounds"




Chorus - play 2x
Eb|--1-1-1-1-1-1-1-1-1-1-1-1-|--------------------------|
Bb|--1-1-1-1-1-1-1-1-1-1-1-1-|--------------------------|
Gb|--3-3-3-3-3-3-3-3-3-3-3-3-|-0-0-0-0-0-0-0-0-0-0-0-0--|
Db|--3-3-3-3-3-3-3-3-3-3-3-3-|-3-3-3-3-3-3-3-3-3-3-3-3--|
Ab|--1-1-1-1-1-1-1-1-1-1-1-1-|-3-3-3-3-3-3-3-3-3-3-3-3--|
Eb|--------------------------|-1-1-1-1-1-1-1-1-1-1-1-1--|
   "Tried to give you summer, but I'm winter"

                              First ending
Eb|--0-0-0-0-0-0-0-0-0-0-0-0-|--------------------------|
Bb|--0-0-0-0-0-0-0-0-0-0-0-0-|-0-0-0-0-0-0-0-0-0-0-0-0--|
Gb|--2-2-2-2-2-2-2-2-2-2-2-2-|-4-4-4-4-4-4-2-2-2-2-2-2--|
Db|--2-2-2-2-2-2-2-2-2-2-2-2-|-0-0-0-0-0-0-0-0-0-0-0-0--|
Ab|--0-0-0-0-0-0-0-0-0-0-0-0-|-x-x-x-x-x-x-x-x-x-x-x-x--|
Eb|--------------------------|-3-3-3-3-3-3-1-1-1-1-1-1--|
  "Wish I could make you spring, but I fall so hard"


Second ending
Eb|-0-0-0-0-0-0--------------|---------------------|
Bb|-0-0-0-0-0-0--------------|---------------------|
Gb|-2-2-2-2-2-2--------------|-----------5-5--5-5--|
Db|-2-2-2-2-2-2-5-5--5-5--4--|-(4)-------5-5--5-5--|
Ab|-0-0-0-0-0-0-5-5--5-5--4--|-(4)-------3-3--3-3--|
Eb|-------------3-3--3-3--2--|-(2)-----------------|



Play Verse riff

"So you always did what you wanted
We will be on our own
I will soon let you go now
Things will be all right

Several weeks have passed now
Grayer than any gray cloud
Several weeks have passed now
And it's so hard"




Play Chorus 2x without Chorus Ending






Modified Verse (play 4x):
Eb|----------------------------------------------------------------------|
Bb|---------------------------------------------------------------------o|
Gb|--7--7-7--5--5-5--5--5-5--5--5-5----------/10--10-10------------------|
Db|--7--7-7--7--7-7--4--4-4--7--7-7--3--3-3--/10--10-10--8--8-8----------|
Ab|--5--5-5--5--5-5--5--5-5--5--5-5--3--3-3--/8---8--8---8--8-8--9--9-9-o|
Eb|----------------------------------1--1-1--------------6--6-6--5--5-5--|

Then end riff with:
Eb|-----------|---------------|
Bb|-----------|---------------|
Gb|---3-------|--3-3-3-3--5---|
Db|---3-------|--3-3-3-3--5---|
Ab|---1-------|--1-1-1-1--3---|
Eb|---1-------|--1-1-1-1--3---|


Bridge
Eb|--------------------------------------------------------------------|
Bb|--------------------------------------------------------------------|
Gb|--------------------------------------------------------------------|
Db|--5-5-5/10-10-10-10-10-10-10-10-10-10-5---5-5-5-5-5---5-5-5-5-------|
Ab|--3-3-3/8--8--8--7--7--7--7--7--7--7--3h5-3-3-3-0-3h5-3-0-0-0-------|
Eb|-----------------------8--8--8--8--8--------------------------------|

   --------------------------------------------------------------------|
   --------------------------------------------------------------------|
   --------------------------------------------------------------------|
   --3-3-3/10-10-10-10-10-10-10-10-10-10-5---5-5-5-5-5---5-5-5-5-------|
   --1-1-1/8--8--8--7--7--7--7--7--7--7--3h5-3-3-3-0-3h5-3-0-0-0-------|
   -----------------------8--8--8--8--8--------------------------------|

   --------------------------------------------------------------------|
   --------------------------------------------------------------------|
   --------------------------------------------------------------------|
   --5-5-5/10-10-10-10-10-10-10-10-10-10-5---5-5-5-5-5---5-5-5-5-------|
   --3-3-3/8--8--8--7--7--7--7--7--7--7--3h5-3-3-3-0-3h5-3-0-0-0-------|
   -----------------------8--8--8--8--8--------------------------------|

   -------------------------------------------------------------------|
   -------------------------------------------------------------------|
   -------------------------------------------------------------------|
   --3-3-3/10-10-10-10-10-10-10-10-10-10-5-5-5-5-5-5-5-5-5-5-5-5------|
   --1-1-1/8--8--8--7--7--7--7--7--7--7--3-3-3-3-3-3-3-3-3-3-3-3------|
   -----------------------8--8--8--8--8-------------------------------|

Breakdown (play 3 times)
Eb|-----------------------------------------------------------|
Bb|----------------------------------------------------------o|
Gb|--3-3-3/10-10-10-9-9-5-5-5-5-5/7-5-5-5-5-5/7-5-----5-------|
Db|-----------------------------------------------7-7---------|
Ab|--1-1-1/8--8--8--7-7-3-3-3-3-3/5-3-3-3-3-3/5-3-----3------o|
Eb|-----------------------------------------------5-5---------|

   last time
   -------------------------------------------------------------------|
   -------------------------------------------------------------------|
   --3-3-3/10-10-10-9-9-5-5-5-5-5/17-17-17-17-17-17-17-17-17-17-17-17-|
   -------------------------------------------------------------------|
   --1-1-1/8--8--8--7-7-3-3-3-3-3/15-15-15-15-15-15-15-15-15-15-15-15-|
   -------------------------------------------------------------------|

Last chorus (3 times)
Eb|----------------------------------------------------|
Bb|---------------------------------------------------o|
Gb|--3-3-3-3-3-3-------------5-5-5-5-5-5-5-5-5-5-5-5---|
Db|--3-3-3-3-3-3-3-3-3-3-3-3-5-5-5-5-5-5-5-5-5-5-5-5---|
Ab|--1-1-1-1-1-1-3-3-3-3-3-3-3-3-3-3-3-3-3-3-3-3-3-3--o|
Eb|--1-1-1-1-1-1-1-1-1-1-1-1-3-3-3-3-3-3-3-3-3-3-3-3---|

   ending (acoustic?)
   --------------------------0------------------------|
   --------------------------1------------------------|
   --3-----------------------0------------------------|
   --3-----------------------2------------------------|
   --1-----------------------3------------------------|
   --------------------------3------------------------|
comments
print report bad tab
1 comment total.
0 reply
Zachy Boy wrote on May 6 2009, 09:15 pm

Sounds good, but everything is jumbled around

I want to post or [tab]
guest
You may want to rate the tab now too:
select rating
Please do not post tabs as comments. Select "correction" instead!