Oops, an error
Loading. Please wait.

Supreme Lifestyle Tab

1,249 views 1 this week
no commentswrite comment
1 2 3 4 5
excellent!
x 4
add to favorites
launch autoscroll
font size
0
reset
how to read this tab
guitar tuner
Tab Pro tools
  • play this tab
  • loop segment
  • change instrument
  • show fretboard
  • metronome
Autoscroll
slow
fast
+/-
esc
set tempo
stop
Contributor
Supreme Lifestyle
Alien Ant Farm

Tunning:Standard

INTRO
e|-2--------2--------2-------2------------------------------|
B|-3--------3--------3-------3------------------------------|
G|-2--------1--------2-------3------------------------------|
D|-0--------0--------0-------0------------------------------|
A|----------------------------------------------------------|
E|----------------------------------------------------------|

VERSE (FIRST TIME, UNTIL BASS ENTERS)
  SUPREME  LIFE...  ONE...  ONE...
e|-2--------2--------0-------0------------------------------|
B|-3--------3--------3-------3------------------------------|
G|-2--------1--------3-------2------------------------------|
D|-0--------0--------0-------0------------------------------|
A|----------------------------------------------------------|
E|----------------------------------------------------------|

VERSE (EVERY OTHER TIME, FROM WHEN BASS ENTERS)
  DREAM... STAY...  I...    I...
e|-X--------X--------0-------0------------------------------|
B|-7--------7--------3-------3------------------------------|
G|-7--------7--------3-------2------------------------------|
D|-7--------6--------0-------0------------------------------|
A|-X--------X--------X-------X------------------------------|
E|-7--------7--------3-------2------------------------------|

PRECHORUS
  ......
e|-----------------------0----------------------------------|
B|-------0--------------------0-----------------------------|
G|-----1-----1---------1--------1---------------------------|
D|---0---------0-----0------------0-------------------------|
A|----------------------------------------------------------|
E|-1-------------1-1----------------------------------------|

CHORUS
  ...AND   TRAGIC...TRAGIC..OH YOU...
e|-2--------2---2----0-------0------------------------------|
B|-3--------3---2----2-------3------------------------------|
G|-0--------0---0----2-------2------------------------------|
D|-2--------2---2----0-------X------------------------------|
A|-2--------0---0------------2------------------------------|
E|-0--------------------------------------------------------|

LAST PART OF CHORUS
e|-2-----3-3----0-----0-------------------------------------|
B|-3-----3-3----3-----2-------------------------------------|
G|-0-----0-0----0-----0-------------------------------------|
D|-2-----2-2----2-----2-------------------------------------|
A|-2-----2-2----0-----0-------------------------------------|
E|-0-----0-0------------------------------------------------|


BRIDGE

e|--------------------------------------------------0-0-----|
B|--------------------------------------------------0-0-----|
G|------------0-0-------------0-0-------------0-0---2-2-----|
D|------2/4-------4-----2/4-------4-----2/4-------4-2-2-----|
A|--------------------------------------------------0-0-----|
E|--3-3-----3-------2-2-----2-------0-0-----0---------------|

END...
comments
print report bad tab
I want to post or [tab]
guest
You may want to rate the tab now too:
select rating
Please do not post tabs as comments. Select "correction" instead!