Oops, an error
Loading. Please wait.

Universe Tab

version 1
version 1

Whole song

1,363 views 6 this week
2 commentsread comments
1 2 3 4 5
accurate
x 4
add to favorites
launch autoscroll
font size
0
reset
how to read this tab
guitar tuner
Autoscroll
slow
fast
+/-
esc
set tempo
stop
Help us to improve Ultimate-Guitar.com Take our survey!
×
Song: Universe 
Artist: Alien Ant Farm 
Album: ANThology 
Author: Rico (i_enjoy_incubus@hotmail.com) 


Hey, I'm only 15 and this is the first tab i've put out. I think 
it's pretty accurate, so try it, and if it's not, get off my back! 
this isn't my job, man! 

Intro/Verse 
e|------------------------------------ 
B|------------------------------------ 
G|------------------------------------ 
D|---------------------------66666666- 
A|-333333333-222222222222222-00000000- 
E|-555555555-444444444444444-00000000- 
      we should have waited... 


Intro 2/Chorus 
e|-------------------------------- 
B|-------------------------------- 
G|----/9-4------------------------ 
D|-3--/9-4-5-3-2222222-4-66666767- 
A|-3--/7-2-5-3-2222222-4-66666767- 
E|-1-------3-1-0000000-2-44444545- 
      we love to break the season 


Bridge to Chorus  
(yes, the first power chord is broken up a bit 
listen carefully to hear the rhythm and place ment of the chords and notes.) 
e|----------------------------------------- 
B|----------------------------------------- 
G|----------------------------------------- 
D|---3-----33---3-----33-2-22-222-2-22-222- 
A|-3---3-3----3---3-3----2-22-222-2-22-222- 
E|-1---1-1----1---1-1----0-00-000-4-44-444- 
    Waiting? I Know... 


Interlude/Breakdown 
e|----------------------------------- 
B|----------------------------------- 
G|----------------------------------- 
D|-33333333-55555555-7--7-9-11-9-7-5- 
A|-33333333-55555555-7--7-9-11-9-7-5- 
E|-11111111-33333333-5--5-7- 9-7-5-3- 
    See! And we don't mind...Are you ashamed...etc. 


Solo 
e|------------------------------ 
B|------------------------------ 
G|-10---9-7----6-9-------------- 
D|--------------------9-10-9-10- 
A|------------------------------ 
E|------------------------------ 
   ==   = =    = = ( = means tremolo pick) 
Suggest correction
What's this?
You can suggest a correction to this tab. Community and Mods will review your correction and vote to approve or reject it.
comments
print report bad tab
2 comments total.
0 reply
AAF_rules 556 wrote on August 29 2004, 12:00 am

errr....its ok...i used this before i got the book so B+

0 reply
Captain Planet 1,343 wrote on March 22 2008, 12:18 pm

Try this for the intro riff, it sounds right to me:

e--------------------------------|
b--------------------------------|
g--------------------------------|
d--------------------------------|
a-0-0-0-0--0-0-0-0--0-0-0-0------|
e-1-1-1-1--0-0-0-0--4-4-4-4------|

guest
You may want to rate the tab now too:
select rating
Please do not post tabs as comments. Select "correction" instead!