Oops, an error
Loading. Please wait.

Whisper tab

version 2
version 2

Whole song

Interactive

783 views 6 this week
no commentswrite comment
1 2 3 4 5
2 more votes to show rating
add to favorites
×
Save as Personal and add changes to this tab that will be seen only by you. Learn more ›
×
You can save this tab as Personal to edit and correct it or add notes. All changes will be seen only by you. Learn more »
launch autoscroll
font size
0
reset
how to read this tab
guitar tuner
edit
Autoscroll
slow
fast
+/-
esc
set tempo
stop
Alien Ant Farm - Whisper
from: Anthology
tabbed by jjhand

Eb tuning
Intro
eb|----------------------------------|--------------------------------|
Bb|----------------------------------|--------------------------------|
Gb|----------------------------------|--------------------6-6---10-10-|
Db|-6-7-6---6-6-6-6--6-7-6---6-6-6-6-|-6-7-6---6-6-6-6--6-6-6---10-10-|
Ab|-0-0-0---0-0-0-0--0-0-0---0-0-0-0-|-0-0-0---0-0-0-0--0-4-4---8--8--|
Eb|----------------------------------|--------------------------------|

Verse	   PM_(first time)___________| 	       PM(also)__| *First time
eb|----------------------------------|------------------------------|
Bb|----------------------------------|------------------------------|
Gb|----------------------------------|--------------------------2-2-|
Db|-4-7-6---6-6-6-6--6-6-6---6-6-6-6-|-4-7-6---6-6-6-6--6-3-3---0-0-|
Ab|-4-7-6---6-6-6-6--6-6-6---6-6-6-6-|-4-7-6---6-6-6-6--6-3-3---0-0-|
Eb|-2-5-4---4-4-4-4--4-4-4---4-4-4-4-|-2-5-4---4-4-4-4--4-1-1-------|

End Verse			
eb|--------------------------|
Bb|--------------------------|
Gb|---------------------5-5--|
Db|-6-7-8---8-8--8-8--8-5-5--|
Ab|-6-7-8---8-8--8-8--8-3-3--|
Eb|-4-5-6---6-6--6-6--6-3-3--|

Chorus - Tremelo pick where indicated
    TP     TP  TP    TP   TP    TP				
eb|----------------|------------------|---------------|-------------|
Bb|----------------|------------------|---------------|-------------|
Gb|-10-----7---10--|-9--7-6-----------|-------2-------|-2-----2-----|
Db|----------------|----------8-7-----|-3-----0---2---|-2-----2-----|
Ab|--8-----5---8---|-7--5-4-----------|-3-----0---2---|-0-----4-----|
Eb|----------------|----------6-5-----|-1---------0---|-------------|

    TP     TP  TP    TP   TP    TP	               Ending	
eb|----------------|------------------|---------------|-----------------|
Bb|----------------|------------------|---------------|-----------------|
Gb|-10-----7---10--|-9--7-6-----------|-------2-------|-2-2-2-2-2-2-2---|
Db|----------------|----------8-7-----|-3-----0---2---|-2-2-2-2-2-2-2---|
Ab|--8-----5---8---|-7--5-4-----------|-3-----0---2---|-0-0-0-0-0-0-0---|
Eb|----------------|----------6-5-----|-1---------0---|-----------------|

Play Verse and Chorus again

Additional bar on Chorus 2:
eb|-----------------|
Bb|-----------------|
Gb|-2-2-2-2-2-2-2---|
Db|-3-3-3-3-3-3-3---|
Ab|-0-0-0-0-0-0-0---|
Eb|-----------------|

Bridge play 3x
eb|-------4-------------1-----|--------0------------------|
Bb|---4-----4-------1-----1---|----0-----0----------3-----|
Gb|---------------------------|-----------------2-----2---|
Db|-6---6-----6---3---3-----3-|--2---2-----2--0---0-----0-|
Ab|---------------------------|---------------------------| 
Eb|---------------------------|---------------------------| 

   After repeats, continue:                     *play notes off-beat
eb|-------4-------------1-----|--------0-------------------|
Bb|---4-----4-------1-----1---|----0-----0------*--*--*--*-|
Gb|---------------------------|-----------------7--7--7--7-|
Db|-6---6-----6---3---3-----3-|--2---2-----2---------------|
Ab|---------------------------|-----------------5--5--5--5-| 
Eb|---------------------------|----------------------------|

eb|-------------------------|---------------------|
Bb|-------------------------|---------------------|
Gb|-7--7--7--7--6--6--6--6--|-5--5--5--5----------|
Db|-------------------------|-------------7-7-6---| 
Ab|-5--5--5--5--5--5--5--5--|-5--5--5--5--6-6-6---| 
Eb|-------------------------|-------------4-4-4---|

Play Verse Riff

Play Chorus but change ending to:
eb|-----------------|-----------------|----------------x/-|
Bb|-----------------|-----------------|-------------x/----|
Gb|-2-2-2-2-2-2-2---|-(2)-------------|----------x/-------|
Db|-2-2-2-2-2-2-3---|-(3)-------------|-------x/----------|
Ab|-0-0-0-0-0-0-0---|-(0)-------------|----x/-------------|
Eb|-----------------|-----------------|-x/----------------|
      The last bar is random ascending string scratches with fingers/pick

            
            
Suggest correction
Creating personal tab
Creating personal tab
You can edit any tab online and save it as your Personal.

You can edit, replace or remove any tab part or add personal notes – all changes will be seen only by you.

Personal tabs can be accessed anytime from any device, even offline.
Learn more »
Give kudos to tab author, rate the tab!
1 2 3 4 5
comments
print report bad tab
guest
You may want to rate the tab now too:
select rating
Wanna post a correction for this tab? Suggest correction