Oops, an error
Loading. Please wait.

When You Say Nothing At All Tab

version 1
version 1

Acoustic

Whole song

Interactive

46,109 views 210 this week
2 commentsread comments
1 2 3 4 5
x 18
add to favorites
launch autoscroll
font size
0
reset
how to read this tab
guitar tuner
Autoscroll
slow
fast
+/-
esc
set tempo
stop
Help us to improve Ultimate-Guitar.com Take our survey!
×
Author
Difficulty
Alison Krauss-When You Say Nothing At All (Acoustic)
Tabbed By: Vince Hernandez
Standard Tuning

========================================================================
Top of the Billboard Hot Country Singles chart on December 24, 1988
100% Accurate
Add Me At FB: vince_cloud58648@yahoo.com
This is my Favorite Song!!!!
========================================================================


[Intro]

       G    D        Cadd9     D        G    D        Cadd9     D
e|------------2-3-|-------------2h3|------------2-3-|-------------2h3|
B|----3-----------|----3-------3---|----3-----------|----3-------3---|
G|------0---2-----|--0---0---2-----|------0---2-----|--0---0---2-----|
D|--0-----0-------|--------0-------|--0-----0-------|--------0-------|
A|----------------|3---------------|----------------|3---------------|
E|3---------------|----------------|3---------------|----------------|


[Verse 1]

Repeat This Until The Pre-Chorus

      G    D        Cadd9     D        G    D        Cadd9     D
e|------------2-3-|-------------2h3|------------2-3-|-------------2h3|
B|----3-----------|----3-------3---|----3-----------|----3-------3---|
G|------0---2-----|--0---0---2-----|------0---2-----|--0---0---2-----|
D|--0-----0-------|--------0-------|--0-----0-------|--------0-------|
A|----------------|3---------------|----------------|3---------------|
E|3---------------|----------------|3---------------|----------------|

It's amazing how you can speak right to my heart
Without saying a word, you can light up the dark.....


[Pre-Chorus]

        Cadd9              D
e|--------3-------|--------2-------|
B|----3-------3---|----3-------3---|
G|--0---0---0---0-|--2---2---2---2-|
D|----------------|0---------------|
A|3---------------|----------------|
E|----------------|----------------|

    G    D           Cadd9         D               D
e|------------2-3-|--------|---------0-------|--------2-------|
B|----3-----------|----3---|-----3-------3---|----3-------3---|
G|------0---2-----|--0---0-|---2---2---2---2-|--2---2---2---2-|
D|--0-----0-------|--------|-0---------------|0---------------|
A|----------------|3-------|-----------------|----------------|
E|3---------------|--------|-----------------|----------------|

Try as I may I can never explain
What I hear when you don't say a thing....


[CHORUS]

    G               D    Cadd9            D
The smile on your face lets me know that you need me
    G                    D     Cadd9               D
There's a truth in your eyes saying you'll never leave me 
     G             D     Cadd9                            D
The touch of your hand says you'll catch me where ever I fall
    Cadd9         D 
You say it best,  when you say nothing at all 


[Intro]

       G    D        Cadd9     D        G    D        Cadd9     D
e|------------2-3-|-------------2h3|------------2-3-|-------------2h3|
B|----3-----------|----3-------3---|----3-----------|----3-------3---|
G|------0---2-----|--0---0---2-----|------0---2-----|--0---0---2-----|
D|--0-----0-------|--------0-------|--0-----0-------|--------0-------|
A|----------------|3---------------|----------------|3---------------|
E|3---------------|----------------|3---------------|----------------|


[Verse 2]

Repeat This Until The Pre-Chorus

      G    D        Cadd9     D        G    D        Cadd9     D
e|------------2-3-|-------------2h3|------------2-3-|-------------2h3|
B|----3-----------|----3-------3---|----3-----------|----3-------3---|
G|------0---2-----|--0---0---2-----|------0---2-----|--0---0---2-----|
D|--0-----0-------|--------0-------|--0-----0-------|--------0-------|
A|----------------|3---------------|----------------|3---------------|
E|3---------------|----------------|3---------------|----------------|

All day long I can hear people talking out loud 
But when you hold me near, you drown out the crowd 
Try as they may, they can never define 
What's been said between your heart and mine 
The smile on your face lets me know that you need me 
There's a truth in your eyes saying you'll never leave me 


[Pre-Chorus]

        Cadd9              D
e|--------3-------|--------2-------|
B|----3-------3---|----3-------3---|
G|--0---0---0---0-|--2---2---2---2-|
D|----------------|0---------------|
A|3---------------|----------------|
E|----------------|----------------|

    G    D           Cadd9         D               D
e|------------2-3-|--------|---------0-------|--------2-------|
B|----3-----------|----3---|-----3-------3---|----3-------3---|
G|------0---2-----|--0---0-|---2---2---2---2-|--2---2---2---2-|
D|--0-----0-------|--------|-0---------------|0---------------|
A|----------------|3-------|-----------------|----------------|
E|3---------------|--------|-----------------|----------------|

Try as they may they can never define
What's been said between your heart and mine


[Pre-Chorus]

        Cadd9              D
e|--------3-------|--------2-------|
B|----3-------3---|----3-------3---|
G|--0---0---0---0-|--2---2---2---2-|
D|----------------|0---------------|
A|3---------------|----------------|
E|----------------|----------------|

    G    D           Cadd9         D               D
e|------------2-3-|--------|---------0-------|--------2-------|
B|----3-----------|----3---|-----3-------3---|----3-------3---|
G|------0---2-----|--0---0-|---2---2---2---2-|--2---2---2---2-|
D|--0-----0-------|--------|-0---------------|0---------------|
A|----------------|3-------|-----------------|----------------|
E|3---------------|--------|-----------------|----------------|

The smile on your face, lets me know that you need me
There's a truth in your eyes, saying you'll never leave me
The touch of your hand says you'll catch me where ever I fall
You say it best, when you say nothing at all


[Solo]


[CHORUS]

    G               D    Cadd9            D
The smile on your face lets me know that you need me
    G                    D     Cadd9               D
There's a truth in your eyes saying you'll never leave me 
     G             D     Cadd9                            D
The touch of your hand says you'll catch me where ever I fall
    Cadd9         D 
You say it best,  when you say nothing at all 

Oooh, That smile on your face, lets me know that you need me
There's a truth in your eyes, saying you'll never leave me
The touch of your hand says you'll catch me where ever I fall
You say it best... when you say nothing at all


[Outro]

       G    D        Cadd9     D        G    D        Cadd9     D
e|------------2-3-|-------------2h3|------------2-3-|-------------2h3|
B|----3-----------|----3-------3---|----3-----------|----3-------3---|
G|------0---2-----|--0---0---2-----|------0---2-----|--0---0---2-----|
D|--0-----0-------|--------0-------|--0-----0-------|--------0-------|
A|----------------|3---------------|----------------|3---------------|
E|3---------------|----------------|3---------------|----------------|


************************************

| h  Hammer-on

| Chords Used:
| G     [230033]
| Cadd9 [023033]
| D     [x00232]

************************************
Suggest correction
comments
print report bad tab
2 comments total.
0 reply
Hanzlman 73 Jul 13, 2013 07:27 AM

Great tab for beginner-fingerpickers and 'under-the-balcony' serenades!

0 reply
naguenyong vinx 3,790 Jul 17, 2013 01:45 AM

Thanks.

guest
You may want to rate the tab now too:
select rating
Wanna post a correction for this tab? Suggest correction