Oops, an error
Loading. Please wait.
We have Chord Pro version of When You Say Nothing At All.
It's the closest thing you can get to the original song and it has interactive parts. Check out the tab »
×
28,458 views 3 this week
1 commentread comment
1 2 3 4 5
x 3
add to favorites
launch autoscroll
font size
0
reset
how to read this tab
guitar tuner
Autoscroll
slow
fast
+/-
esc
set tempo
stop
hey I got this much, the other tabs there sound like it,
but this I think sounds right on the money, you have to
listen to the song carefully.

--------------------------------------------------
----------------3--5-------------3----------3-----
-------------2---------------2-----------0--------
-------0--0---------------2-----------0-----------
0h2-----------------0-----------------------------
-----------------------------------3--------------
Repeat this two times
Suggest correction
Give kudos to tab author, rate the tab!
1 2 3 4 5
comments
print report bad tab
1 comment total.
0 reply
kooldudeike 10 Jul 03, 2003 08:00 PM

capo on 1st
hey this is it, its all perfect all you
have to do is add the lyrics. I'm not into country that much, but this is a kickass song!
intro:
--------0-------------------------------
------3-------3-------3------2h3--------
----2-------2-------2------2------------
--0-------0-------0---------------------
--------0---------------0---------------
----------------3-----------------------
Chorus
D A G A
--2--0--3--0-------------------------
--3--2--0--2-------------------------
--2--2--0--2-------------------------
--0--2--0--2-------------------------
-----0--2--0-------------------------
--------3----------------------------
G A when u say nothin'
--3-----0----------------------------
--0-----2----------------------------
--0-----2----------------------------
--0-----2----------------------------
--2-----0----------------------------
--3----------------------------------

guest
Wanna post a correction for this tab? Suggest correction