Oops, an error
Loading. Please wait.

97 Bass Tab

version 1
version 1

Live

Whole song

Interactive

386 views 1 this week
2 commentsread comments
1 2 3 4 5
please rate
add to favorites
launch autoscroll
font size
0
reset
guitar tuner
Autoscroll
slow
fast
+/-
esc
set tempo
stop
Help us to improve Ultimate-Guitar.com Take our survey!
×
Author
This is a tab for the bassline that Dan plays on the Halloween at the Metro DVD. 
Not sure on the verses, but the rest sounds spot on.

3/4 timing
standard tuning

Intro:
G|-------------------|-------------------------------------------------|
D|--Derek counts in--|-------999-9h11-9-666-6h7-6--------6---------4---|
A|----with hi-hat----|----------------------------4-44-4---4-2-22-2-2--|
E|-------------------|0-0-0-0------------------------------------------|

G|-----------------------------------------------------|
D|-------999-9h11-9-666-6h7-6--------6----------4------|
A|----------------------------4-44-4---4-2-22-2---2----|
E|0-0-0-0----------------------------------------------|

Verse: "I've got it now..."

G|---------------------------------------------------|
D|-------999-9h11-9-666-6h7-6--------6----------4----|
A|----------------------------4-44-4---4-2-22-2---2--| (X4)
E|0-0-0-0--------------------------------------------|

Chorus: "And you'll be there..." (Dan just hits octaves here throughout)
G|-----2-222-----2-222------------------------------------------|
D|--------------------------4-444-----4-444-----4-444-----4-444-|
A|0-000-----0-000------2-222-----2-222--------------------------|
E|-----------------------------------------2-222-----2-222------|

G|-----------------------------|
D|-----------------------------| End of chorus
A|-----6-666--------7-77777777-|
E|4-444-------5-555------------|

Break:
G|---------------------------------------------------|
D|-------999-9h11-9-666-6h7-6--------6----------4----|
A|----------------------------4-44-4---4-2-22-2---2--| (X2)
E|0-0-0-0--------------------------------------------|

Interlude:
G|------9-----9---------------------9----|------------------------|
D|----7-----7---------4----------/7------|2-222-4-2-2-4-2-1-2-1-2-|
A|0-------0------2--2---2----2-0---------|------------------------|
E|---------------------------------------|------------------------|

G|---------------------------------------|
D|---------------------------------------| (at the /\ whip your hand up and
A|2-2222/\--4-4444/\--7-7777/\--6-6666---|  down the fretboard like dan
E|---------------------------------------|             does)

G|------9-----9-----------------2----|------------------------|
D|----7-----7---------4--------------|2-222-2-222-4-444-2-222-|
A|0-------0------2--2---2----0----00-|------------------------|
E|-----------------------------------|------------------------|

G|-------------------------|
D|------4-4444-------------|
A|2-222--------4-444-5-555-|
E|-------------------------|

Verse: "I've got it now!"
G|---------------------------------------------------|
D|-------999-9h11-9-666-6h7-6--------6----------4----|
A|----------------------------4-44-4---4-2-22-2---2--| (X4)
E|0-0-0-0--------------------------------------------|


Bass Solo
(This is slightly different to the CD version)
G|-----------------------------------------------------|
D|----------------------------------77777--------------|
A|-------------4-4444-2-2222-0-0000------4-4444-2-2222-| (X2)
E|0-0000-0-0000----------------------------------------|

"Back in the city..." Matt begins quoting
G|-------------------------------------------------|
D|-------------------------------------------------|
A|------------4~-----2~-----0~------4~-----2~------| (X2)
E|0~-----------------------------------------------|

"The rats were pissing in doorways..." (Matt messes up)
G|-------------------------------------------------------|
D|-------------------------------------------------------|
A|-------------4-4444-2-2222-0-0000-0-0000-4-4444-2-2222-| (X2)
E|0-0000-0-0000------------------------------------------|

"Had a dream with Roy's face in it..."
G|-------------------------------------------------------------|
D|----------------------------------(7)(7)(7)(7)---------------|
A|-------------4-4444-2-2222-0-0000-------------4-4444-2-2222--| (X2)
E|0-0000-0-0000------------------------------------------------|

"I put too much on the table..."
G|-----------------------------------------------------|
D|------------------------------------7\\\-------------|
A|-----7\\-------4-4444-2-2222-0-0000-----4-444-2-222--|
E|0-00----0-00-----------------------------------------|

"I put too much at stake..."
G|-----------------------------------------------------|
D|----------------------------------77777--------------|
A|-------------4-4444-2-2222-0-0000------4-4444-2-2222-|
E|0-0000-0-0000----------------------------------------|

Dan returns to the double notes from the CD version now!
"I don't deserve this..."
G|-----------------------------------------------------|
D|-------------6-6666-4-4444--------777776-6666-4-4444-|
A|-------------4-4444-2-2222-0-0000------4-4444-2-2222-| (X2)
E|0-0000-0-0000----------------------------------------|

G|-----------------------------------------------------|
D|-------------6-6666-4-4444--------7\\\\6-6666-4-4444-|
A|-------7\\---4-4444-2-2222-0-0000------4-4444-2-2222-| (X2)
E|0-0000-----------------------------------------------|

G|-----------------------------------------------------------|
D|-------------6-6666-4-4444-------------------6-6666-4-4444-|
A|-------------4-4444-2-2222-0~-0~-0~-0~-0~-0~-4-4444-2-2222-|
E|0-0000-0-0000----------------------------------------------|

Outro
(This bits difficult to work out)
G|----------------------------------------------------|
D|--------9h11-9------6h7--6----------6----------4----|
A|-----------------------------4-44-4---4-2-22-2---2--| (X3)
E|0-00000---------------------------------------------|

G|---------------------------------------------------|
D|-------999-9h11-9-666-6h7-6--------6----------4----|
A|7-7-7-7---------------------4-44-4---4-2-22-2---2--|
E|---------------------------------------------------|

G|---------------------------------------------|
D|---------------------------------------------|
A|--------6-7-7--77777777777777777---------7-7-|
E|0~-----------------------------------------0-|

G|----------------------------|-------------|
D|----------------------------|-------------|
A|-Matt's little guitar outro-|--7-7\\\\\\\-|
E|----------------------------|-------------|

Awesome song to finish an awesome DVD.

Enjoy.
(use a pick on this song, it makes it sound more authentic)
Suggest correction
What's this?
You can suggest a correction to this tab. Community and Mods will review your correction and vote to approve or reject it.
comments
We did not receive enough feedback on this tab! Please rate:
print report bad tab
1 2 3 4 5
2 comments total.
0 reply
spiff-corgi 2,496 wrote on August 3 2007, 01:08 pm

just realised that in the verse dan hits a low e instead of the
A|-7-7-7-7
that I said he plays.

0 reply
five_out_ride 15 wrote on January 30 2009, 07:41 am

Awesome. Thank you a lot.

guest
You may want to rate the tab now too:
select rating
Please do not post tabs as comments. Select "correction" instead!