Oops, an error
Loading. Please wait.

97 Bass Tab

version 2
version 2

Whole song

Interactive

2,416 views 3 this week
3 commentsread comments
1 2 3 4 5
x 3
add to favorites
launch autoscroll
font size
0
reset
guitar tuner
Autoscroll
slow
fast
+/-
esc
set tempo
stop
Help us to improve Ultimate-Guitar.com Take our survey!
×
Song:97
Album:S/T
Band:Alkaline Trio
Tuning:Standard

ok here is the correct way to play this song. for the bass "solo" type riff if you
dont play with a pick, pick with your finger for the double notes.

intro
E|-----------------------------------------------------------------|
A|-0~0~00~000000-77777-99999-1111111111-12-0-0~12\9/12-77777-99999-|
D|-----------------------------------------------------------------|
G|-----------------------------------------------------------------|

intro end 1
E|--------------------------------------------------------|
A|-1111111111-0-0~00~---------77777-99999-1111111111-12-0-|
D|-------------------11111111-----------------------------|
G|--------------------------------------------------------|

intro

pre-verse
A|-0~0-00-00000-|

verse
E|---------------------------------------------------|
A|-777777-----------4-4444----------2-2222-----------|x6
D|-------------------------4/6666----------2/4444----|
G|--------7/9999999----------------------------------|

chorus i guess
E|--5555-5555-5555-5555-7777-7777---------200002000022220000004444455555-|
A|-7----7----7----7----9----9----7777-6666-------------------------------|
D|-----------------------------------------------------------------------|
G|-----------------------------------------------------------------------|

verse x2

bridge
E|------------------7xxx77-777--------------------------------|
A|-7-7-7-7-7-7-----------------7-7777-542--77777777-9999999-0-|
D|7---7---7---7/9-7-----------------------7-------------------|
G|------------------------------------------------------------|

end 1                                   end 2
E|-7777-9999-----------|             |-2-2222-2-2222-4-4444-5-5555-|
A|-----------7777-6666-|repeat bridge|-----------------------------| 
D|---------------------|             |-----------------------------|
G|---------------------|             |-----------------------------|

verse x4

pre-bass solo
E|------------------------------------------------|
A|-7-7777-7-7777-4-4444-2-2222-00-00--4444-222222-|x2
D|-------------------------------7--7-6666-444444-|
G|------------------------------------------------|

bass solo
E|---------------------------------------------------|
A|-7-7777---7777-4-4444-2-2222-00-000000-4444-222222-|x3
D|-------------------------------7-------6666-444444-|
G|--------9------------------------------------------|

pre-bass solo x3

bass solo #2
E|-------------------------------------------------------|
A|-7-7777-7-7777-4-4444-2-2222-0-0000-0-0000-4444-222222-|x2
D|-------------------------------------------6666-444444-|
G|-------------------------------------------------------|

post bass solo
E|--------------------------------------------------------|
A|-7-7777-7-7777--------------4-4444-4-4444-2-2222-2-2222-|x3
D|----------------------------6-6666-6-6666-4-4444-4-4444-|
G|---------------7/9999999999-----------------------------|

verse x1

end riff
E|-0~-----------------------------|
A|--7777-99999-1111111111-12-0----|
D|--------------------------------|
G|------------------------------9~|

thats it. one of my favorite songs to play. the best song to end the album i think.
thats all. i'm tabbin' the correct verson of jaked on green beers next. remember alk3
rocks!
Suggest correction
Give kudos to tab author, rate the tab!
1 2 3 4 5
comments
print report bad tab
3 comments total.
0 reply
NaturalMonster 26 Feb 14, 2007 11:15 AM

the tabs a upside down

0 reply
spiff-corgi 811 Jul 22, 2007 08:58 AM

whatever possessed you to write an upside down tab!

0 reply
rancidbass220 161 Dec 31, 2011 05:05 PM

intro
G|-----------------------------------------------------------------|
D|-----------------------------------------------------------------|
A|-0~0~00~000000-77777-99999-1111111111-12-0-0~12\9/12-77777-99999-|
E|-----------------------------------------------------------------|

intro end 1
G|--------------------------------------------------------|
D|-------------------11111111-----------------------------|
A|-1111111111-0-0~00~---------77777-99999-1111111111-12-0-|
E|--------------------------------------------------------|

intro

pre-verse
A|-0~0-00-00000-|

verse
G|--------7/9999999----------------------------------|
D|-------------------------4/6666----------2/4444----|x6
A|-777777-----------4-4444----------2-2222-----------|
E|---------------------------------------------------|

chorus i guess
G|-----------------------------------------------------------------------|
D|-----------------------------------------------------------------------|
A|-7----7----7----7----9----9----7777-6666-------------------------------|
E|--5555-5555-5555-5555-7777-7777---------200002000022220000004444455555-|

verse x2

bridge
G|------------------------------------------------------------|
D|7---7---7---7/9-7-----------------------7-------------------|
A|-7-7-7-7-7-7-----------------7-7777-542--77777777-9999999-0-|
E|------------------7xxx77-777--------------------------------|

end 1 end 2
G|---------------------| |-----------------------------|
D|---------------------|repeat bridge|-----------------------------|
A|-----------7777-6666-| |-----------------------------|
E|-7777-9999-----------| |-2-2222-2-2222-4-4444-5-5555-|

verse x4

pre-bass solo
G|------------------------------------------------|
D|-------------------------------7--7-6666-444444-|x2
A|-7-7777-7-7777-4-4444-2-2222-00-00--4444-222222-|
E|------------------------------------------------|

bass solo
G|--------9------------------------------------------|
D|-------------------------------7-------6666-444444-|x3
A|-7-7777---7777-4-4444-2-2222-00-000000-4444-222222-|
E|---------------------------------------------------|

pre-bass solo x3

bass solo #2
G|-------------------------------------------------------|
D|-------------------------------------------6666-444444-|x2
A|-7-7777-7-7777-4-4444-2-2222-0-0000-0-0000-4444-222222-|
E|-------------------------------------------------------|

post bass solo
G|---------------7/9999999999-----------------------------|
D|----------------------------6-6666-6-6666-4-4444-4-4444-|x3
A|-7-7777-7-7777--------------4-4444-4-4444-2-2222-2-2222-|
E|--------------------------------------------------------|

verse x1

end riff
G|------------------------------9~|
D|------------------------------7~|
A|--7777-99999-1111111111-12-0----|
E|-0~-----------------------------|

guest
You may want to rate the tab now too:
select rating
Wanna post a correction for this tab? Suggest correction