Oops, an error
Loading. Please wait.

97 Tab

version 2
version 2

Whole song

Interactive

1,500 views 6 this week
1 commentread comment
1 2 3 4 5
accurate
x 4
add to favorites
launch autoscroll
font size
0
reset
how to read this tab
guitar tuner
Autoscroll
slow
fast
+/-
esc
set tempo
stop
Help us to improve Ultimate-Guitar.com Take our survey!
×
Contributor
danA 36
lets get this song right, here it is: please rate.

intro:
e|---------------------------------------------------------------------------
B|---------------------------------------------------------------------------
G|------------------------------9----------------------------------9---------
D|----7---6---6---4---4-----4---9--7~/6~----7-7-7-6-6-6-4--4--4----9--7~/6~--
A|--0---0---0---0---0---0---0---7--0--------0-0-0-0-0-0-0-0--0--0--7--0------
E|---------------------------------------------------------------------------

e|--7-7-7-7-----------4-4-x-4--2-2-x-2------|
B|--7-7-7-7-----------4-4-x-4--2-2-x-2------|
G|--9-9-9-9-9---------5-5-x-5--3-3-x-3------|
D|--9-9-9-9-9-9-7-6-4-6-6-x-6--4-4-x-4------| repeat
A|--7-7-7-7-7-0-0-0-0-6-6-x-6--4-4-x-4------|
E|--X-X-X-X-----------4-4-x-4--2-2-x-2------|

repeat through verse until :..."and youll be there..."
e|----------------------------------------------------|
B|----------------------------------------------------|
G|----------------------------------------------------|
D|--6-6-6-6-6-6-6-6--4-4-4-4-4-4-4--------------------|
A|--6-6-6-6-6-6-6-6--4-4-4-4-4-4-4--------------------|
E|--4-4-4-4-4-4-4-4--2-2-2-2-2-2-2--------------------|
PM  . . . . . . . .  . . . . . . .

Chorus: repeat intro until:
e|---------------------------------------------------------------------------
B|---------------------------------------------------------------------------
G|---------------------------4-4-4-4-4-4-4-4--------------9-9-9-9-9-9-9-9----
D|-----7---6---6---7---9-----4-4-4-4-4-4-4-4----7---9---9-9-9-9-9-9-9-9-9----
A|---0---0---0---0---0---0---2-2-2-2-2-2-2-2--0---0---0---7-7-7-7-7-7-7-7----
E|---------------------------x-x-x-x-x-x-x-x--------------x-x-x-x-x-x-x-x----

e|---------------------------------------|             |-------------------|
B|---------------------------------------|             |-------------------|
G|---6-6-6-6-3-3-3-3-9-9-9-9-3-3-3-3-----|             |------------3~-----| 
D|---6-6-6-6-3-3-3-3-9-9-9-9-3-3-3-3-----| repeat x 2  |---3~-------3~-----|
A|---4-4-4-4-5-5-5-5-7-7-7-7-5-5-5-5-----|             |---3~-------5~-----|
E|---x-x-x-x-x-x-x-x-x-x-x-x-x-x-x-x-----|             |---5~--------------|

"i got it now!..." repeat intro
"dont deserve this..." BASS...
outro:
e|-------------------------------------|
B|-------------------------------------|
G|---7---------------------------------|
D|---7--(x12)--6--------4--------------|
A|---9---------6-(x6)---4-(x6)---------|
E|---x---------4--------2--------------| 
repeat intro...to end. 

Thank you. hitemup44@aol.com
Suggest correction new What's this?
You can suggest a correction to this tab. Community and Mods will review your correction and vote to approve or reject it.
comments
print report bad tab
1 comment total.
0 reply
explodingboy 19 wrote on April 29 2004, 12:00 am

this is way better than version 1!
but i play that little lick in the verse like this,

e-7777----------------------------------------------
b-7777----------------------------------------------
g-9999-------------------6xx66666---4xx44444--------
d-9999--9/11-9-7-6-7-9---6xx66666---4xx44444--------
a-7777--0/0--0-0-0-0-0---4xx44444---2xx22222--------
e-xxxx----------------------------------------------

sounds pretty gud to me

I want to post or [tab]
guest
You may want to rate the tab now too:
select rating
Please do not post tabs as comments. Select "correction" instead!