Oops, an error
Loading. Please wait.

97 Bass Tab

version 3
version 3

Whole song

Interactive

286 views 1 this week
no commentswrite comment
1 2 3 4 5
please rate
add to favorites
launch autoscroll
font size
0
reset
guitar tuner
Tab Pro tools
  • play this tab
  • loop segment
  • change instrument
  • show fretboard
  • metronome
×
Best way to learn
"97"
Autoscroll
slow
fast
+/-
esc
set tempo
stop
Contributor
Difficulty
novice
Song:97
Album:S/T
Band:Alkaline Trio
Tuning:Standard

intro
G|-----------------------------------------------------------------|
D|-----------------------------------------------------------------|
A|-0~0~00~000000-77777-99999-1111111111-12-0-0~12\9/12-77777-99999-|
E|-----------------------------------------------------------------|

intro end 1
G|--------------------------------------------------------|
D|-------------------11111111-----------------------------|
A|-1111111111-0-0~00~---------77777-99999-1111111111-12-0-|
E|--------------------------------------------------------|

intro

pre-verse
A|-0~0-00-00000-|

verse
G|--------7/9999999----------------------------------|
D|-------------------------4/6666----------2/4444----|x6
A|-777777-----------4-4444----------2-2222-----------|
E|---------------------------------------------------|


chorus i guess
G|-----------------------------------------------------------------------|
D|-----------------------------------------------------------------------|
A|-7----7----7----7----9----9----7777-6666-------------------------------|
E|--5555-5555-5555-5555-7777-7777---------200002000022220000004444455555-|

verse x2

bridge
G|------------------------------------------------------------|
D|7---7---7---7/9-7-----------------------7-------------------|
A|-7-7-7-7-7-7-----------------7-7777-542--77777777-9999999-0-|
E|------------------7xxx77-777--------------------------------|

end 1                                   end 2
G|---------------------|             |-----------------------------|
D|---------------------|repeat bridge|-----------------------------|
A|-----------7777-6666-|             |-----------------------------| 
E|-7777-9999-----------|             |-2-2222-2-2222-4-4444-5-5555-|

verse x4

pre-bass solo
G|------------------------------------------------|
D|-------------------------------7--7-6666-444444-|x2
A|-7-7777-7-7777-4-4444-2-2222-00-00--4444-222222-|
E|------------------------------------------------|

bass solo
G|--------9------------------------------------------|
D|-------------------------------7-------6666-444444-|x3
A|-7-7777---7777-4-4444-2-2222-00-000000-4444-222222-|
E|---------------------------------------------------|

pre-bass solo x3

bass solo #2
G|-------------------------------------------------------|
D|-------------------------------------------6666-444444-|x2
A|-7-7777-7-7777-4-4444-2-2222-0-0000-0-0000-4444-222222-|
E|-------------------------------------------------------|

post bass solo
G|---------------7/9999999999-----------------------------|
D|----------------------------6-6666-6-6666-4-4444-4-4444-|x3
A|-7-7777-7-7777--------------4-4444-4-4444-2-2222-2-2222-|
E|--------------------------------------------------------|

verse x1

end riff
G|------------------------------9~|
D|------------------------------7~|
A|--7777-99999-1111111111-12-0----|
E|-0~-----------------------------|

that's it.
comments
We did not receive enough feedback on this tab! Please rate:
print report bad tab
1 2 3 4 5
I want to post or [tab]
guest
You may want to rate the tab now too:
select rating
Please do not post tabs as comments. Select "correction" instead!