Oops, an error
Loading. Please wait.

Agony And Irony Bass Tab

8,145 views 3 this week
5 commentsread comments
1 2 3 4 5
accurate
x 11
add to favorites
launch autoscroll
font size
0
reset
guitar tuner
Autoscroll
slow
fast
+/-
esc
set tempo
stop
Help us to improve Ultimate-Guitar.com Take our survey!
×
Author
Difficulty
intermediate
Album: Agony and Irony
Artist: Alkaline Trio
Bassist: Dan Andriano

Track List:
1. Calling All Skeletons
2. Help Me
3. In Vein
4. Over and Out
5. I Found Away
6. Do You Wanna Know?
7. Live Young, Die Fast
8. Love, Love, Kiss, Kiss
9. Lost and Rendered
10. Ruin It
11. Into the Night

12. Burned Is The House


To start with I would like the reader to acknowledge:

1. THESE TABS ARE MY WORK! ALTHOUGH THEY MAY BE SIMILAR TO TABS ALREADY UP (I DON'T KNOW 
I HAVEN'T LOOKED AT ANY)
I TABBED THEM MYSELF AND PLEASE RESPECT THAT. DO NOT ASK FOR CREDIT COS YOUR TAB IS SIMILAR.

2. NOT ALL THE FILLS WILL BE 100% CORRECT. I HOPE THAT MOST OF THEM ARE, BUT DON'T RATE 
BADLY COS ONE FILL ON A PARTICULAR SONG IS WRONG.


KEY:
h      Hammer-On                            e.g. 1h2
p      Pull off                             e.g. 2p0
g      Grace note (very fast hammer-on)     e.g. 2g3
T-T-T  Triplets (seen above the notes)
/      Slide up the fretboard to the note   e.g. 0/8
\      Slide down the fretboard             e.g. 8\0
()     Optional note/quiet note             e.g. (0)
R      Rest
x      Play the note that made times        e.g. x16
x      Dead note                            e.g. x

----------------------------------------------------------------------------

1. Calling All Skeletons               STANDARD TUNING


No bass for a while..... :P

|---------------|----------------|
|---------------|----------------|
|---------3-3---|----------5-5---|  x 4
|0-0----------3-|3-3-----------0-|

Verse:
|----------------|----------------|
|----------------|----------------|
|----------3-3---|----------5-5---|  x 4
|0-0-0-0-0-----3-|3-3-3-3-3-----0-|

|---------------|----------------|
|---------------|----------------|
|---------3-3---|----------5-5---|  x 2
|0-0----------3-|3-3-----------0-|

Bridge:
|----------------|-----------------|
|----------------|-----------------|
|3-3-3-3-3-3-3-3-|3-3-3-3-3-3-3-3-3|
|----------------|-----------------|

Chorus:
|----------------|----------------|----------------|----------------|
|----------------|----------------|----------------|----------------|
|----------------|----------------|3-3-3-3-3-3-3-3-|0-0-2-2-3-3-5-5-|
|0-0-0-0-0-0-0-0-|3-3-3-3-3-3-3-3-|----------------|----------------|

|----------------|----------------|----------------|----------------|
|----------------|----------------|----------------|----------------|
|----------------|----------------|----------------|2-2-2-2-2-0-----|
|0-0-0-0-0-0-0-0-|2-2-2-2-2-2-2-2-|3-3-3-3-3-3-3-3-|------------3-2-|


Post Chorus:
|---------------|----------------|
|---------------|----------------|
|---------3-3---|----------5-5---|  x 2
|0-0----------3-|3-3-----------0-|

Verse:
|----------------|----------------|----------------|----------------|
|----------------|----------------|2-2-2-2-2-------|----------------|
|----------3-3---|----------5-5---|----------3-3---|----------5-5---| x 2
|0-0-0-0-0-----3-|3-3-3-3-3-----0-|--------------3-|3-3-3-3-3-----0-|

Bridge:
|----------------|-----------------|
|----------------|-----------------|
|3-3-3-3-3-3-3-3-|3-3-3-3-3-3-3-3-3|
|----------------|-----------------|

Chorus:
|----------------|----------------|----------------|----------------|
|----------------|----------------|----------------|----------------|
|----------------|----------------|3-3-3-3-3-3-3-3-|0-0-2-2-3-3-5-5-|
|0-0-0-0-0-0-0-0-|3-3-3-3-3-3-3-3-|----------------|----------------|

|----------------|----------------|----------------|----------------|
|----2-2-2-2-2-2-|----------------|----------------|----------------|
|----------------|----------------|----------------|2-2-0-0-----2-2-|
|0-0-------------|2-2-2-2-2-2-2-2-|3-3-3-3-3-3-3-3-|--------3-3-----|

Middle 8:
|----------------|----------------|------------------|----------------|
|----------------|----------------|------------------|----------------|
|3-R-3-R-3-0-3-0-|5-R-5-R-5-3-5-3-|7-7-7-7-9-9-10-10-|2-2-0-0-----2-2-|
|----------------|----------------|------------------|--------3-3-----|

|----------------|----------------|----------------|----------------|
|----------------|----------------|--------9-9-9-9-|----------------|
|3-R-3-R-3-2-0-2-|5-R-5-R-5-3-2-3-|7-7-7-7-7-7-7-7-|2-2-2-2-2-2-2-2-|
|----------------|----------------|----------------|----------------|

|----------------|----------------|
|----------------|----------------|
|3-3-3-3-3-3-3-3-|5-5-5-5-5-5-5-5-|
|----------------|----------------|


GIANT CLAPPING SECTION OF THE SONG

THEN...
|----------------|----------------|
|----------------|----------------|
|3-3-3-3-3-3-3-3-|3-3-3-3-3-2-0---|
|----------------|--------------3-|

Chorus:
|----------------|----------------|----------------|----------------|
|----------------|----------------|----------------|----------------|
|----------------|----------------|3-3-3-3-3-3-3-3-|0-0-2-2-3-3-5-5-|
|0-0-0-0-0-0-0-0-|3-3-3-3-3-3-3-3-|----------------|----------------|

|----------------|----------------|----------------|----------------|
|----------------|----------------|----------------|5-4-2-----------|
|----------------|----------------|3-3-3-3-3-3-3-3-|------3-3-5-3-2-|
|0-0-0-0-0-0-0-0-|2-2-2-2-2-2-2-2-|----------------|----------------|

|----------------|----------------|----------------|----------------|
|----------------|----------------|----------------|----------------|
|----------------|----------------|3-3-3-3-3-3-3-3-|0-0-2-2-3-3-2-2-|
|0-0-0-0-0-0-0-0-|3-3-3-3-3-3-3-3-|----------------|----------------|

|----------------|----------------|----------------|----------------|
|--------2-2-2-2-|--------4-4-4-4-|--------5-5-5-5-|----------------|
|----------------|----------------|----------------|2-2-2-2-2-2-2-2-|
|0-0-0-0---------|2-2-2-2---------|3-3-3-3---------|----------------|

|----------------|----------------|----------------|
|----------------|----------------|----------------|
|3-3-3-3-3-3-3-3-|5-5-5-5-5-5-5-5-|----------------|
|----------------|----------------|0---------------|



2. Help Me                                STANDARD TUNING

Intro:
|----------------|----------------|      |----------------|----------------|
|----------------|----------------|      |----------------|----------------|
|2-2-2-2-2-2-2-2-|----------------| x 3  |----------------|----------------|
|----------------|4-4-4-4-2-2-2-2-|      |0-0-0-0-0-0-0-0-|2-2-2-2-2-2-2-2-|

Verse:
|----------------|----------------|----------------|----------------|
|----------------|----------------|----------------|----------------|
|2-2-2-R-R-2-2-2-|------------1---|2-2-2-R-R-2-2-2-|----------------|
|----------------|4-4/7-4-2-2---2-|----------------|4-4-6-7-2-2-4-6-|

|----------------|----------------|----------------|----------------|
|----------------|6-6-8-9-4-4-6-6-|----------------|----------------|
|2-2-2-R-R-2-2-2-|----------------|----------------|----------------|
|----------------|----------------|0-0-0-0-0-0-0-0-|2-2-2-2-2-2-2-2-|

Repeat the first verse. There are minute differences in the fills that you shouldn't 
worry about. It sounds better if you use the original fills anyway.

Bridge:
|--------------|--------------|
|--------------|--------------|
|--------------|222-R--444-R--| x 2
|444-R--000-R--|--------------|

|----------------|----------------|----------------|----------------|
|----------------|----------------|----------------|----------------|
|----------------|2222222244444444|----------------|----------------|
|4444444400000000|----------------|0-0-0-0-0-0-0-0-|2-2-2-2-2-2-2-2-|

Chorus:
|----------------|----------------|----------------|----------------|
|----------------|----------------|----------------|----------------|
|2-2-2-2-2-2-2-2/|7-7-7-7-7-7-7-7-|----------------|--------1-1-----|
|----------------|----------------|4-4-4-4-6-6-7-7-|2-2-4-4-----2-2-|

|----------------|----------------|----------------|----------------|
|------4-4-4-4-4-|----------------|----------------|------9-9---9-9-|
|2-2-2-----------|1-1-1/9-9-9-9-9-|----------------|----7-----7-----|
|----------------|----------------|4-4-4-4-2-2-2-2-|0-0-------------|

|----------------|
|9~--------------|
|----------------|
|----------------|

Verse 3
Pretty similar to the first 2 verses

Bridge
Same again

Chorus
Same again except the last bar changes to

|----------------|---------------|
|----------------|---------------|
|----------------|---------2-R---|
|0-0-0-0-0-0-2-4-|--4-R-2------0-|


La la la la la la la.....


|----------------|----------------|----------------|----------------|
|----------------|----------------|----------------|----------------|
|2-2-2-2-2-2-2-2-|1-1-1-1-1-1-1-1-|----------------|----------------|
|----------------|----------------|4-4-4-4-2-2-2-2-|0-0-0-0-0-0-0-0-|

Bridge:
|-----------------|----------------|     |----------------|----------------|
|-----------------|----------------|     |----------------|----------------|
|-----------------|2222222244444444| x 3 |----------------|-------/99999999|
|44444444000000000|----------------|     |0-0-0-0-0-0-0-0-|2-2-2-2---------|


Play chorus twice

Ending 1
|----------------|
|----------------|
|----------------|
|0-0-0-0-0-0-0-0-|

Ending 2
|----------------|-----------------|----------------|-----------------|
|----------------|-----------------|----------------|-----------------|
|----------------|----------2-R----|----7-7-7-7-7---|----------2-R----|
|0-0-0-0-0-0-0-4-|--4-R-2-------0--|--0-----------4-|--4-R-2-------0--|



3. In Vein                      STANDARD TUNING

Intro:
|--------|---------------|----------------|---------------|----------------|
|--------|---------------|3---------------|---------------|7---------------|
|88888885|-R-5-R-5-R-5-R-|----5---00000005|-R-5-R-5-R-5-R-|----5---88888885|
|--------|---------------|----------------|---------------|----------------|


Last note leads into the first verse:
|---------------|----------------|---------------|--------------|
|---------------|3-R-3-R-3-R-3-0-|--------2g3----|----2---3--2p0|
|-R-5-R-5-R-5-0-|----------------|1-R-1-R-----1--|0--(0)-(0)----|
|---------------|----------------|---------------|--------------|

          T-T-T
|-------------------|----------------|----------------|
|-R-0-R-2-3p2p0-0-2-|3-R-3-R-3g5-3-2-|----------------|
|-------------------|----------------|0-0-0-0-1-1-1-1-|
|-------------------|----------------|----------------|

Break:
|------------|-----------|----------------|----------------|
|---------2--|---3-------|----3---2---3---|7-7-7-7---------|
|---12\---0--|-R-1-------|0-0---0---0---0-|--------88888885|
|-R-10\-R----|------(1)--|----------------|----------------|

Second Verse
Same as first

Chorus:
|----------------|----------------|---------------|----------------|
|----------------|----------------|----7-------3--|------------2---|
|5-5-5-5-1-1-1-1-|--------0-0-0-0-|5-5---5-1-1---1|----5---0-0---0-| x 2
|----------------|1-1-1-1---------|---------------|3-3---3---------|

|----------------|----------------|----------------|----------------|
|----------------|----------------|----3---2---3---|7-7-7-7---------|
|5-5-5-5-3-3-3-3-|1-1-1-1---------|0-0---0---0---0-|--------88888885|
|----------------|--------1-1-1-1-|----------------|----------------|

Post Chorus is the same as the intro

Verse 3:
|----------------|----------------|----------------|----------------|
|----------------|3-3-3-3-3-3-3-0-|--------3-3-----|----2-2-3-3-2-0-|
|5-5-5-5-5-5-5-0-|----------------|1-1-1-1-----1-1-|0-0-------------|
|----------------|----------------|----------------|----------------|

           T-T-T
|--------------------|----------------|----------------|----------------|
|0-0-0-0-2-3p2p0-0-2-|3-3-3-3-5-5-3-2-|--------5-5-3-2-|----------------|
|--------------------|----------------|1-1-1-1---------|0-0-0-1-1-1-1-1-|
|--------------------|----------------|----------------|----------------|

Chorus the same but with extended ending:

"I don't wanna be the one who takes this..."
|----------------|----------------|----------------|----------------|
|----------------|----------------|----------------|----------------|
|5-5-5-5-3-3-3-3-|1-1-1-1---------|5-5-5-5-3-3-3-3-|1-1-1-1-8-8-7-7-|
|----------------|--------1-1-1-1-|----------------|----------------|

|----------------|----------------|----------------|----------------|
|----------------|----------------|----3---2---3---|2-2-2-2-2-2-2-2-|
|5-5-5-5-3-3-3-3-|1-1-1-1---------|0-0---0---0---0-|----------------|
|----------------|--------1-1-1-1-|----------------|----------------|

BREAKDOWN!       T--T--T
|---------|---------------|---------|----------|
|---------|----2g3--2-----|---------|----------|
|1R--1----|------------3--|5R--5----|----0--3--|
|---------|---------------|---------|----------|

 T--T--T             T--T--T   T--T--T
|-------------|---------------|-------------|(7)---------|
|---------3---|----2g3--2-----|---------7---|------------|
|1--0--1--1---|------------3--|5--3--5--5---|----0--3----|
|-------------|---------------|-------------|------------|

 T--T--T             T--T--T   T--T--T
|-------------|(3)------------|-------------|7-----------|
|---------3---|----2g3--2-----|---------7---|------------|
|1--0--1--1---|------------3--|5--3--5--5---|----0--3----|
|-------------|---------------|-------------|------------|

Middle 8 Part 1
"WHOA WHOA"
|----------------|----------------|----------------|----------------|
|----------------|----------------|----------------|----------------|
|1-1-1-1-1-1-1-1-|1-1-1-1-1-1-1-1-|5-5-5-5-5-5-5-5-|3-3-3-3-3-3-3-0-|
|----------------|----------------|----------------|----------------|

|----------------|----------------|----------------|----------------|
|----------------|----------------|----------------|----------------|
|1-1-1-1-1-1-1-1-|1-1-1-1-8-8-7-7-|5-5-5-5-5-5-5-5-|3-3-3-3-3-3-3-0-|
|----------------|----------------|----------------|----------------|

Part 2
|-----|-----|-----|-----|-----|-----|
|-----|7----|5----|3----|7----|5----|
|1----|5----|3----|1----|5----|3----|
|-----|-----|-----|-----|-----|-----|

Part 3
"WHOA WHOA"
|----------------|----------------|----------------|----------------|
|----------------|----------------|----------------|----------------|
|1-1-1-1-1-1-1-1-|1-1-1-1-1-1-1-1-|5-5-5-5-5-5-5-5-|3-3-3-3-3-3-3-3-|
|----------------|----------------|----------------|----------------|

|----------------|----------------|----------------|----------------|
|----------------|----------------|----------------|----------------|
|1-1-1-1-1-1-1-1-|1-1-1-1-1-1-1-1-|8-8-8-8-8-8-8-8-|3-3-3-3-3-3-3-3-|
|----------------|----------------|----------------|----------------|

|----------------|----------|
|----------------|5---------|
|1-1-1-1-1-1-1-1-|3---(0)---|      DRUM FILL
|----------------|----------|


Chorus the same as the second time

End on:
|----------------|
|2-2-2-2-33333330|
|----------------|
|----------------|



4. Over and Out              STANDARD TUNING

It's important to let the notes ring in the arpeggio parts of this song

OH MY GOD, I CLEARLY COPIED THIS TAB! NOT!

Intro:
|-------------------|----------------|
|----11---11---11---|----9---9---9-11|>>>>>>>>>>>>>>>>>>>>>>>>>>>>>>>>
|----------------|----------------|----------------|----------------|
|----------------|----------------|----------------|----------------|
|----------------|----------------|----------------|3-3-3-3-5-5-5-5-|
|3\--------------|----------------|3-3-3-3-3-3-3-3-|----------------|

|----------------|----------------|----------------|----------------|
|----------------|----------------|------5-4-2-0-2-|----------------|
|----------------|3-3-3-3-5-5-5-5-|----------------|3-3-3-3-5-5-5-5-|
|0-0-0-0-0-0-0-0-|----------------|0-0-0-----------|----------------|


|----------------|----------------|
|----------------|----------------|
|----------------|3-3-3-3-5-5-5-5-| x2
|3-3-3-3-3-3-3-3-|----------------|

Final Chorus:
|----------------|----------------|
|----------------|----------------|
|----------------|3-3-3-3-5-5-5-5-| x2
|3-3-3-3-3-3-3-3-|----------------|

|----------------|----------------|----------------|----------------|
|----------------|----------------|------5-4-2-0-2-|----2-------7---|
|----------------|3-3-3-3-5-5-5-5-|----------------|3-3---3-5-5---5-|
|0-0-0-0-0-0-0-0-|----------------|0-0-0-----------|----------------|

|----------------|----------------|------------|
|----------------|----------------|------------|
|----------------|3-------5-------|------------|
|3-3-3-3-3-3-3-3-|----------------|3-----------|




9. Lost and Rendered                    STANDARD TUNING


The Intro to this is mental. I think I worked it out right, but it's so fast
its difficult to tell.
                 Bar 2 updated 06/09/08, all credit goes to 
                 chromaticvision, who made the guitar pro tab.
                 The rest of the tab was done by me.       
|----------------|-----------------|-----------------|----------|
|----------------|-----------------|-----------------|----------|
|7-7-R--------7--|7-7-R--------5---|7-7-R--------7-0-|---5--3-2-| x2
|0-0-R--005H7----|0-0-R--000-8---7-|0-0-R--005-7-----|3---------|
 ^ ^
 You don't have to play chords but it sounds better if you do!

Verse:
|----------------|----------------|----------------|----------------|
|------2-2-2-R---|----------------|----------------|----------------|
|----------------|------5-5-5-R-3-|3-3-R-2-2-2-R-3-|3-3-R-5-5-5-R---| x2
|0-0-R---------3-|3-3-R-----------|----------------|--------------0-|

Bridge:
|----------------|----------------|----------------|----------------|
|------2-2-2-R---|----------------|------2-2-2-R---|----------------|
|--------------5-|5-5-R-3-3-3-R---|--------------5-|5-5-R-3-3-3-R---|
|0-0-R-----------|--------------0-|0-0-R-----------|--------------0-|

|----------------|----------------|
|------2-2-2-R---|----------------|
|--------------5-|5-5-R-3-3-3-R---|   "Solving......"
|0-0-R-----------|----------------|

Chorus:
|----------------|----------------|----------------|----------------|
|----------------|----------------|----------------|----------------|
|----------------|----------------|3-3-3-3-3-3-3-3-|0-0-0-0-0-2-3-2-|
|0-0-0-0-0-0-0-0-|0-0-0-0-0-0-0-0-|----------------|----------------|

|----------------|----------------|----------------|----------------|
|----------------|----------------|----------------|----------------|
|----------------|----------------|2-2-2-2-2-2-2-3-|3-3-3-3-3-3-3-3-|
|0-0-0-0-0-0-0-0-|0-0-0-0-0-0-0-0-|----------------|----------------|

|----------------|----------------|----------------|----------------|
|----------------|----------------|----------------|----------------|
|----------------|----------------|3-3-3-3-3-3-3-3-|0-0-0-0-0-0-0-0-|
|0-0-0-0-0-0-0-0-|0-0-0-0-0-0-0-0-|----------------|----------------|
                                                    "Time"
|----------------|----------------|----------------|----------------|
|----------------|----------------|----------------|----------------|
|----------------|----------------|2-2-2-2-2-2-2-3-|R---------------|
|0-0-0-0-0-0-0-0-|0-0-0-0-0-0-0-0-|----------------|----------------|

Now, basically play the whole thing again from the start.

Middle:
(has a weird rhythm)
|----------------|----------------|----------------|----------------|
|----------------|----------------|----------------|----------------|
|----------------|----------------|----------------|----------------|
|0-0-0-0-0-0-0-0-|0-0-0-0-0-0-0-0-|3-3-3-3-3-3-3-3-|3-3-3-3-3-3-3-3-|

|----------------|----------------|----------------|----------------|
|----------------|----------------|----------------|----------------|
|3-3-3-3-3-3-3-3-|3-3-3-3-3-3-3-3-|0-0-0-0-0-0-0-0-|3-3-3-3-2-2-2-2-|
|----------------|----------------|----------------|----------------|

Play twice

Guitar solo (If bending one note counts as a solo...)
|----------------|----------------|----------------|----------------|
|----------------|----------------|----------------|----------------|
|--------------3-|3-3-R-2-2-2-R---|--------------3-|3-3-R-2-2-2-R---|
|0-0-R-3-3-3-R---|--------------0-|0-0-R-3-3-3-R---|--------------0-|

|----------------|----------------|----------------|----------------|
|----------------|----------------|----------------|----------------|
|--------------3-|3-3-R-2-2-2-R-0-|0-0-0-0-0-0-0-0-|0-R-------------|
|0-0-R-3-3-3-R---|----------------|----------------|----------------|

Play chorus twice and then it's over!




10. Ruin It                                 STANDARD TUNING

Intro:
|------------|
|5-----------|
|---6--5--3--| x4
|------------|

Verse:
|------------|-------|------------|------------|
|------------|-------|------------|------------|
|3-3-R-------|-------|3-3-R-------|---2--5--6--|
|------------|1------|------------|3-----------|

|------------|-------|-------|--------|
|------------|-------|-------|--------|
|3-3-R-------|-------|-------|--------|
|------------|1------|3------|1---3---|

Break:
|------------|
|5-----------|
|---6--5--3--| x4
|------------|

Verse:
|-----|------|-----|------|-----|------|----------------|----------------|
|-----|------|-----|3-----|-----|1-----|----------------|----------------|
|3----|------|-----|------|3----|---3--|--------2-2-2-2-|5-5-5-5-6-6-6-6-|
|-----|------|1----|------|-----|------|3-3-3-3---------|----------------|

|-----|------|-----|1-----|-----|------|----------------|----------------|
|-----|1-----|3----|---3--|-----|1-----|----------------|----------------|
|3----|---3--|-----|------|3----|---3--|--------2-2-2-2-|5-5-5-5-6-6-6-6-|
|-----|------|-----|------|-----|------|3-3-3-3---------|----------------|

Bridge:
|----------------|----------------|--------------|--------|
|----------------|----------------|--------------|--------|
|----------------|----------------|--------------|5---6---|
|4-4-4-4-4-4-4-4-|4-4-4-4-4-4-4-4-|6-6-6-6-6-6-6-|--------|

Chorus:
|----------------|     |----------------|
|----------------|     |----------------|
|3x8-------1x16--|     |------1x8-------|
|-----3x8--------| x3  |1x16-------3x8--|

Post Chorus
|------------|------------|------------|------------|
|------------|------------|------------|------------|
|3--R--3--R--|3--R--3--R--|------------|------------|
|------------|------------|1--R--1--R--|1--R--1--R--|

|------------|------------|------------|------------|
|------------|------------|------------|------------|
|3--R--3--R--|3--R--3--R--|------------|------------|
|------------|------------|3--R--3--R--|3--R--3--R--|

Verse:
|------------------------|
|------------------------|
|3x16--------3x16--------| x2
|------1x16--------3x16--|

Bridge:
|----------------|----------------|----------------|-------|
|----------------|----------------|----------------|-------|
|----------------|----------------|----------------|-------|
|4-4-4-4-4-4-4-4-|4-4-4-4-4-4-4-4-|6-6-6-6-6-6-6-6-|6-R----|

Chorus:
|----------------|     |----------------|
|----------------|     |----------------|
|3x8-------1x16--|     |------1x8-------|
|-----3x8--------| x3  |1x16-------3x8--|

Middle 8:
|---------------------------------|
|---------------------------------|
|------3x16-----------------------|
|4x16--------4x16--6x8--1x4--3x4--|

|---------------------------------|
|---------------------------------|
|------3x16--1x16--1x8--1x4--2x4--|
|4x16-----------------------------|

Chorus:
|----------------|     |----------------|
|----------------|     |----------------|
|3x8-------1x16--|     |------1x8-------|
|-----3x8--------| x3  |1x16-------3x8--|

End:
|------------|------|
|5-----------|------|
|---6--5--2--|3-----|
|------------|------|




11. Into the Night              STANDARD TUNING

The bridge has really weird fills. I think I got them right...

Intro:
|----------------|----------------|----------------|----------------|
|----------------|----------------|----------------|----------------|
|5-5-5-5-5-5-5-5-|----------------|----------------|1-1-1-1-1-1-1-1-|
|----------------|1-1-1-1-1-1-1-1-|3-3-3-3-3-3-3-3-|----------------|

Riff:
|----------------|----------------|----------------|----------------|
|----------------|----------------|----------------|----------------|
|5-5-5-5-5-5-5-5-|5-5-5-5-5-5-5-5-|8-8-8-8-8-8-8-8-|----------------| x2
|----------------|----------------|----------------|6-6-6-6-6-6-6-6-|

Verse:
|----------------|----------------|----------------|----------------|
|----------------|----------------|----------------|8-8-8-8-8-8-8-8-|
|5-5-5-5-5-5-5-5-|5-5-5-5-5-5-5-5-|8-8-8-8-8-8-8-8-|----------------| x2
|----------------|----------------|----------------|----------------|

Bridge:
|----------------|----------------|----------------|----------------|
|----------------|----------------|------2-3-2-----|----------------|
|5-5-5-5---------|1-1-1-1-1-1-1-1-|5-3-5-------5-3-|1-1-1-1-1-1-1-1-|
|--------3-3-3-3-|----------------|----------------|----------------|

|----------------|----------------|----------------|----------------|
|----------------|----------------|----------------|----------------|
|5-5-5-5---------|1-1-1-1-1-1-1-1-|3-3-3-3-3-3-3-3-|3-3-3-3-3-3-3-3-|
|--------3-3-3-3-|----------------|----------------|----------------|

Chorus:
|----------------|----------------|----------------|----------------|
|----------------|----------------|----------------|----------------|
|----------------|----------------|0-0-0-0-0-0-0-0-|3-3-3-3-3-3-3-3-| x2
|1-1-1-1-1-1-1-1-|1-1-1-1-1-1-1-1-|----------------|----------------|

|----------------|----------------|----------------|----------------|
|----------------|----------------|----------------|----------------|
|1-1-1-1-1-1-1-1-|----------------|3-3-3-3-3-3-3-3-|5-5-5-5-3-3-3-3-|
|----------------|1-1-1-1-1-1-1-1-|----------------|----------------|

|----------------|----------------|----------------|----------------|
|----------------|----------------|----------------|----------------|
|1-1-1-1-1-1-1-1-|1-1-1-1-0-0-0-0-|3-3-3-3-3-3-3-3-|3-3-3-3-4-4-4-4-|
|----------------|----------------|----------------|----------------|

Post-chorus:
|----------------|----------------|----------------|----------------|
|----------------|----------------|----------------|----------------|
|5-5-5-5-5-5-5-5-|5-5-5-5-5-5-5-5-|8-8-8-8-8-8-8-8-|----------------| x2
|----------------|----------------|----------------|6-6-6-6-6-6-6-6-|

Verse:
|----------------|----------------|----------------|----------------|
|----------------|----------------|----------------|8-8-8-8-8-8-8-8-|
|5-5-5-5-5-5-5-5-|5-5-5-5-5-5-5-5-|8-8-8-8-8-8-8-8-|----------------| x2
|----------------|----------------|----------------|----------------|

Bridge:
|----------------|----------------|----------------|----------------|
|----------------|----------------|------2-3-5-----|----------------|
|5-5-5-5---------|1-1-1-1-1-1-1-1-|5-3-5-------5-3-|1-1-1-1-1-1-1-1-|
|--------3-3-3-3-|----------------|----------------|----------------|

|----------------|----------------|----------------|----------------|
|----------------|----------------|----------------|----------------|
|5-R-5-R---------|1-R-1-R-0-0-0-0-|3-3-3-3-3-3-3-3-|3-3-3-3-3-3-3-3-|
|--------3-R-3-R-|----------------|----------------|----------------|

Chorus:
|----------------|----------------|----------------|----------------|
|----------------|----------------|----------------|----------------|
|----------------|----------------|0-0-0-0-0-0-0-0-|3-3-3-3-3-3-3-3-|
|1-1-1-1-1-1-1-1-|1-1-1-1-1-1-1-1-|----------------|----------------|

|----------------|----------------|----------------|----------------|
|3-3-3-3-3-3-3-3-|3-3-3-3-3-3-3-3-|----------------|----------------|
|----------------|----------------|0-0-0-0-0-0-0-0-|3-3-3-3-3-3-3-3-|
|----------------|----------------|----------------|----------------|

|----------------|----------------|----------------|----------------|
|----------------|----------------|----------------|----------------|
|1-1-1-1-1-1-1-1-|----------------|3-3-3-3-3-3-3-3-|5-5-5-5-3-3-3-3-|
|----------------|1-1-1-1-1-1-1-1-|----------------|----------------|

|----------------|----------------|----------------|----------------|
|----------------|----------------|----------------|----------------|
|1-1-1-1-1-1-1-1-|1-1-1-1-0-0-0-0-|3-3-3-3-3-3-3-3-|3-3-3-3-4-4-4-4-|
|----------------|----------------|----------------|----------------|

Instrumental Part
|7---------------|----------------|(7)-------------|----------------|
|----------------|----------------|----------------|----------------|
|5---------------|----------------|----------------|----------------|
|----------------|----------------|----------------|----------------|

|----------------|----------------|----------------|----------------|
|----------------|----------------|----------------|----------------|
|5-5-5-5-5-5-5-5-|----------------|----------------|1-1-1-1-1-1-1-1-|
|----------------|1-1-1-1-1-1-1-1-|3-3-3-3-3-3-3-3-|----------------|

Bridge:
|----------------|----------------|----------------|----------------|
|----------------|----------------|------2-3-5-3-2-|----------------|
|5-5-5-5---------|1-1-1-1-1-1-1-1-|5-3-5-----------|1-1-1-1-1-1-1-1-|
|--------3-3-3-3-|----------------|----------------|----------------|

|----------------|----------------|----------------|----------------|
|----------------|----------------|----------------|----------------|
|5-R-5-R---------|1-R-1-R-0-0-0-0-|3-3-3-3-3-3-3-3-|3-3-3-3-3-3-3-3-|
|--------3-R-3-R-|----------------|----------------|----------------|

Chorus:
|----------------|----------------|----------------|----------------|
|----------------|----------------|----------------|----------------|
|----------------|----------------|0-0-0-0-0-0-0-0-|3-3-3-3-3-3-3-3-|
|1-1-1-1-1-1-1-1-|1-1-1-1-1-1-1-1-|----------------|----------------|

|----------------|----------------|----------------|----------------|
|3-3-3-3-3-3-3-3-|3-3-3-3-3-3-3-3-|----------------|----------------|
|----------------|----------------|0-0-0-0-0-0-0-0-|3-3-3-3-3-3-3-3-|
|----------------|----------------|----------------|----------------|

|----------------|----------------|----------------|----------------|
|----------------|----------------|----------------|----------------|
|1-1-1-1-1-1-1-1-|----------------|3-3-3-3-3-3-3-3-|5-5-5-5-3-3-3-3-|
|----------------|1-1-1-1-1-1-1-1-|----------------|----------------|

|----------------|----------------|----------------|----------------|
|----------------|----------------|----------------|----------------|
|1-1-1-1-1-1-1-1-|1-1-1-1-0-0-0-0-|3-3-3-3-3-3-3-3-|3-3-3-3-4-4-4-4-|
|----------------|----------------|----------------|----------------|

Outro:
|----------------|----------------|----------------|----------------|
|----------------|----------------|----------------|----------------|
|5-5-5-5-5-5-5-5-|5-5-5-5-5-5-5-5-|8-8-8-8-8-8-8-8-|----------------| x4
|----------------|----------------|----------------|6-6-6-6-6-6-6-6-|

End on:
|----------------|
|----------------|
|5---------------|
|----------------|



12. Burned Is The House (Bonus Track)       STANDARD TUNING

You'll have to work out the rhythm, I'm just giving you the notes.

Intro:
|----------------|--------------|----------------|----------------|
|--------9-------|11--11--7--7--|----------------|--------7777----|
|00000000-0000000|--00--00-00-00|5555555555555555|45555555----5555|
|----------------|--------------|----------------|----------------|

|----------------|--------------|----------------|----------------|
|--------9-------|11--11--7--7--|----------------|----------------|
|00000000-0000000|--00--00-00-00|5555555555555555|5555555555555555|
|----------------|--------------|----------------|----------------|

First Verse:
|----------------|-------------|-----------------|----------------|
|----------------|-------------|-----------------|----------------|
|0---------------|-------4-----|5-R-5-0-5-R-5-5h7|5-R-5-0-5-4-2-4-|
|----------------|-------------|-----------------|----------------|

|--------------9-|9----7-6--4--|-----------------|----------------|
|----------------|-------------|-----------------|----------------|
|0---------------|-------------|5-R-5-0-5-R-5-5h7|5-R-5-0-5-4-2-4-|
|----------------|-------------|-----------------|----------------|

Bridge:
|----------------|----------------|----------------|----------------|
|----------------|----------------|----------------|----------------|
|2-2-2-2-2-2-2-2-|2-2-2-2-2-2-2-2-|5-5-5-5-5-5-5-5-|5-5-5-5-5-5-5-5-|
|----------------|----------------|----------------|----------------|

Break:
|----------------|-------------|
|--------------9-|9----7-6-----|
|0---------------|-------------|
|----------------|-------------|

Second Verse:
|----------------|-------------|-----------------|----------------|
|-------------11-|11---9-7--6--|-----------------|----------------|
|0---------------|-------------|5-R-5-0-5-R-5-5h7|5-R-5-0-5-4-2-4-|
|----------------|-------------|-----------------|----------------|

|--------------9-|9----7-6--4--|-----------------|----------------|
|----------------|-------------|-----------------|----------------|
|0---------------|-------------|5-R-5-0-5-R-5-5h7|5-R-5-0-5-4-2-4-|
|----------------|-------------|-----------------|----------------|

Bridge:
|----------------|----------------|----------------|----------------|
|----------------|----------------|7-----7---------|----------------|
|2-2-2-2-2-2-2-2-|2-2-2-2-2-2-2-2-|--5-5---5-5-5-5-|5-5-5-5-5-5-5-5-|
|----------------|----------------|----------------|----------------|

Chorus:
|----------------|----------------|----------------|----------------|
|----------------|----------------|----------------|----------------|
|0000000000000000|5555555555555555|----------------|----------------|
|----------------|----------------|2222222222222222|0000000000000000|

 T-T-T  T-T-T   T-T-T
|--------------|------------------|
|--------------|------------------|
|--------------|5-5-5--5-5-5-5----| x2
|2-2----5-5----|------------------|

|----------------|----------------|----------------|----------------|
|----------------|----------------|----------------|----------------|
|0000000000000000|5555555555555555|----------------|----------------|
|----------------|----------------|2222222222222222|0000000000000000|

 T-T-T  T-T-T   T-T-T           T-T-T  T-T-T   T-T-T
|--------------|---------------|--------------|----------------|
|--------------|---------------|--------------|----------------|
|--------------|5-5-5--5-5-5-5-|--------------|5-5-5-----------|
|2-2----5-5----|---------------|2-2----5-5----|-------0-0-0-0--|

"Whoa!":
|---------------|----------------|----------------|----------------|
|---------------|----------------|----------------|----------------|
|000000000000000|0000000000000000|5555555555555555|5555555555555555|
|---------------|----------------|----------------|----------------|

|---------------|----------------|----------------|----------------|
|---------------|----------------|----------------|----------------|
|000000000000000|----------------|----------------|5---------------|
|---------------|2222222222222222|0000000000000000|--------0-------|

Post Chorus:
|----------------|--------------|----------------|----------------|
|--------9-------|11--11--7--7--|----------------|----------------|
|00000000-0000000|--00--00-00-00|5555555555555555|5555555555555555|
|----------------|--------------|----------------|----------------|

Third verse:
Same as second.

Bridge:
Same as before

Chorus:
Same, without the "Whoa" bit on the end

Middle 8:
|-----|-----|-----|-----|-----|----------|-----|-------|
|-----|-----|-----|-----|-----|----------|-----|---77--|
|0----|-----|-----|-----|-----|--11-11-12|5----|-------|
|-----|-----|2----|-----|0----|----------|-----|-------|


|--------------9-|9----7-6--4--|-----------------|----------------|
|----------------|-------------|---------------4-|4---------------|
|0---------------|-------------|-----------------|----------------|
|----------------|-------------|2----------------|-----2-2--------|

|----------------|---------------|---------------|----------------|
|----------------|---------------|---------------|----------------|
|----------------|14--12--11--9--|5--------------|----------------|
|0---------------|---------------|---------------|----------------|

"Whoa!":
|---------------|----------------|----------------|----------------|
|---------------|----------------|----------------|----------------|
|000000000000000|0000000000000000|5555555555555555|5555555555555555|
|---------------|----------------|----------------|----------------|

|---------------|----------------|----------------|----------------|
|---------------|----------------|----------------|----------------|
|000000000000000|----------------|----------------|5555555577777777|
|---------------|2222222222222222|0000000000000000|----------------|

|---------------|----------------|----------------|----------------|
|---------------|----------------|----------------|----------------|
|000000000000000|0000000000000000|5555555555555555|5555555555555555|
|---------------|----------------|----------------|----------------|

|---------------|----------------|----------------|----------------|
|---------------|----------------|----------------|----------------|
|000000000000000|----------------|----------------|5---------------|
|---------------|2222222222222222|0000000000000000|--------0-------|
Suggest correction
comments
print report bad tab
5 comments total. Showing first comments.
-1 reply
chromaticvision 4,024 wrote on July 21 2008, 09:06 pm

(I'm sorry but I looked at another tab for this... and it's JUST WRONG. No other way
it. My tab is better.)

You arrogant ass, you say my tab is just wrong, then you only have a hammer on diffent???

You almost definately coppied from my tabs, except badly. This is full of mistakes.

-1 reply
spiff-corgi 811 wrote on July 22 2008, 08:01 am

JUST TO CLARIFY, WHAT THIS GUY SAYING ISN'T TRUE.

THE REASON MY TABS ARE "BADLY" COPIED IS COS THEY ARE NOT COPIED. I WORKED THEM OUT MYSELF... and by the looks of it... correctly, seeing as the one i saw of his was WRONG!!!!!!!!

-1 reply
mindistortion89 10 wrote on October 8 2008, 09:14 pm

great tabs thank you 5 stars

guest
You may want to rate the tab now too:
select rating
Wanna post a correction for this tab? Suggest correction