Oops, an error
Loading. Please wait.

All On Black Bass Tab

version 1
version 1

Whole song

Interactive

2,013 views 9 this week
1 commentread comment
1 2 3 4 5
accurate
x 3
add to favorites
launch autoscroll
font size
0
reset
guitar tuner
Autoscroll
slow
fast
+/-
esc
set tempo
stop
Help us to improve Ultimate-Guitar.com Take our survey!
×
Author
~ = Let ring
/ = slide up
\ = slide down
Intro
G|----------------------------------------------------------------|
D|----------------------------------------------------------------|
A|00000022332200----------/88888880000002233225533----------------|
E|--------------33111111111-----------------------1111111111111111|

Verse 1 Part 1
G|----------------------------------------------------------------|
D|----------------------------------------------------------------|
A|0~~~~~~~~~~~~~~~----------------0~~~2~~~3~~~5~~~----------------|
E|----------------1~~~~~~~~~~~~~~~----------------1~~~~~~~3~~~~~~~|

Verse 1 Part 2
G|----------------------------------------------------------------|
D|-----------320---3~~3/5\3~~~~~~~--------------------------------|
A|0~~~~~~~~~~---3-----------------0~~~2~~~3~~~5~~~----------------|
E|---------------1~-------------------------------1~~~~~~~3~~~~~~~|

Verse 2 Part 1
G|----------------------------------------------------------------|
D|----7777----320-----3333----3333--------------------------------|
A|0000----0000---3----------------0000222233335555----------------|
E|----------------1111----1111--------------------1111111113333333|

Verse 2 Part 2
G|----------------------------------------------------------------|
D|------------320-------------------------------------------------|
A|000000000000---3----------------0000222233335555----------------|
E|----------------1111111111111111----------------1111111133333333|

Bridge 1
G|----------------------------------------------------------------|
D|------------------------------------------------33333333~~~~~~~~|
A|----------------------------------------------------------------|
E|111111111111111133333333333333331111111111111111----------------|

Bridge 2
G|----------------------------------------------------------------|
D|--------33333333--------55555555----------------3333333333333333|
A|----------------------------------------------------------------|
E|11111111--------33333333--------1111111111111111----------------|

Chorus
G|--------------------------------|
D|----7777----7777----3333----5555|
A|0000----0000--------------------|
E|----------------1111----3333----|

Riff
G|----------------------------------------------------------------|
D|----------------------------------------------------------------|
A|3333333333333333------------------------------------------------|
E|----------------111111111111111155555555555555553333333311111111|

Outro Part 1
G|------------------------------------------------|
D|----5555----5555----7777----7777----3333----3333|
A|3333----3333----0000----0000--------------------|
E|--------------------------------1111----1111----|

Outro Part 2
G|----------------|
D|----------------|
A|00000022332200--|
E|--------------33|

Ending Note
G|-|
D|-|
A|-|
E|1|

Songflow:
Intro x 1
Verse 1 Part 1 x 1
Verse 1 Part 2 x 1
Intro x 1
Verse 2 Part 1 x 1
Verse 2 Part 2 x 1
Bridge x 1
Chorus x 4
Intro x 1
Verse 2 Part 1 x 1
Verse 2 Part 2 x 1
Bridge 2 x 1
Chorus x 4
Riff x 2
Outro Part 1 x 4
Outro Part 2 x 1
Ending Note.
Suggest correction
What's this?
You can suggest a correction to this tab. Community and Mods will review your correction and vote to approve or reject it.
comments
We did not receive enough feedback on this tab! Please rate:
print report bad tab
1 2 3 4 5
1 comment total.
0 reply
The Quilt Engin 97 wrote on June 21 2006, 12:57 pm

I'm working on a Message From Kathlene bass tab, and have a good deal of it done. If I submitted it incomplete would you be interested in trying to fill in the gaps?

guest
You may want to rate the tab now too:
select rating
Please do not post tabs as comments. Select "correction" instead!