Oops, an error
Loading. Please wait.

All On Black Bass Tab

version 2
version 2

Whole song

Interactive

2,138 views 1 this week
no commentswrite comment
1 2 3 4 5
please rate
add to favorites
launch autoscroll
font size
0
reset
guitar tuner
Autoscroll
slow
fast
+/-
esc
set tempo
stop
Help us to improve Ultimate-Guitar.com Take our survey!
×
Author
Difficulty
novice
Tabbed by: Dale
Email: dale2022@yahoo.com

 All of the other versions are missing some parts and hopefully I got them. This is from 
they played on Letterman.
I think its close, just listen. Rate and comment. Thank you.


G |--------------------------------------------------------------------------|
D |-------------------------------33333333--------------------------33333333-|
A |------------223322----------------------------22332532--------------------|
E |-12\--555555------5533-11111111---------555555--------53-11111111---------|

   I put it all on black...
G |---------------------------------------------------------------------------|
D |-------7~------33~---------3-\----------7---32------3/5\3---------3-\------|
A |--------------------0-2-3-5--------------------32----------0-2-3-5---------|
E |5~--------1~-------------------3---5~-------------1--------------------3---|

G |----------------------------------------------------------------------|
D |---------------------------33333333--------------------------33333333-|
A |--------223322----------------------------22332532--------------------|
E |--555555------5533-11111111---------555555--------53-11111111---------|

  I put it all in back..
G |-------------------------------------------------------------------repeat-|
D |----7777----32-------3333----3333-----------------33333333----------------|
A |--------------32------------------0000222233335555------------------------|
E |5555----5555-----1111----1111-----------------------------33333333--------|

  whats black and white..
G |------------------------------------------------------|
D |------------------------------------------------------|
A |------------------------------------------------------|
E |1-(16times)-3-(16times)-1-(16times)-3-(9times)--------|

  sweet blasphemy..
G |-------------------------------------------------------|
D |------------14141414-----------------------------------|
A |000012121212--------12121212---------------------------|
E |----------------------------1111111133333333-----------|

G |---------------------------------------------------------|
D |------------14141414--------33333333----5555-------------|
A |000012121212--------12121212-----------------------------|
E |------------------------------------3333-----------------|

G |-------------------------------------------------------|
D |------------14141414-----------------------------------|
A |000012121212--------12121212---------------------------|
E |----------------------------1111111133333333-----------|

G |--------------------------------------------------------|
D |------------32------------------------------------------|
A |-0-(12times)--32----------------------------------------|
E |-----------------11111111-33333333----------------------|

G |----------------------------------------------------------------------|
D |---------------------------33333333--------------------------33333333-|
A |--------223322----------------------------22332532--------------------|
E |--555555------5533-11111111---------555555--------53-11111111---------|

  I put them all in black..
G |------------------------------------------------------------------------|
D |----7777----32---------3-—3--3-3------------------3333333355555555------|
A |--------------32-----------------0000222233335555-----------------------|
E |5555----5555-----1-1-1--------------------------------------------------|

G |---------------------------------------------------------------------------|
D |----7777----32-------3333----3333-----------------33333333----5555---------|
A |--------------32------------------0000222233335555-------------------------|
E |5555----5555-----1111----1111-----------------------------3333-------------|

 whats upside down..
G |------------------------------------------------------|
D |------------------------------------------------------|
A |------------------------------------------------------|
E |1-(16times)-3-(16times)-1-(16times)-3-(9times)--------|

  sweet blasphemy..
G |-------------------------------------------------------|
D |------------14141414-----------------------------------|
A |000012121212--------12121212---------------------------|
E |----------------------------1111111133333333-----------|

G |---------------------------------------------------------|
D |------------14141414--------33333333----5555-------------|
A |000012121212--------12121212-----------------------------|
E |------------------------------------3333-----------------|

G |-------------------------------------------------------|
D |------------14141414-----------------------------------|
A |000012121212--------12121212---------------------------|
E |----------------------------1111111133333333-----------|

G |--------------------------------------------------------|
D |------------32------------------------------------------|
A |-0-(12times)--32----------------------------------------|
E |-----------------11111111-3-(16times)-------------------|

  one of these days..
G |--------------------------------------------------------------------------|
D |------------------------3333-----------1414-------------------------------|
A |-3-(16times)-----------------0000121200----00171700--------------0022-----|
E |------------111111111111----------------------------33333333-1133---------|

  one of these nights..
G |--------------------------------------------------------------------------|
D |------------------------3333-----------1414-------------------------------|
A |-3-(16times)-----------------0000121200----00171700-----------------------|
E |------------111111111111----------------------------33333333-11111111-----|

G |-----55--55--55----------------------------------------------------|
D |---------------------14--14----------------------------------------|
A |-3333--33--33--33--00--------00-----0022—--------------------------|
E |-----------------------12--12---1133-------------------------------|

G |------------------------------------------------------------------|
D |--------------------14--14------12--12----------------------------|
A |-3333333355332233-00--------0000--------00------------------------|
E |----------------------12--12------10--10--------------------------|

G |------------------------------------------------------------------|
D |--------------------14--14----------------------------------------|
A |-3333333353235323-00--------00-----0022-------223322--------------|
E |----------------------12--12---1133-----555555------5533-1~-------|
Suggest correction
Give kudos to tab author, rate the tab!
1 2 3 4 5
comments
print report bad tab
guest
You may want to rate the tab now too:
select rating
Please do not post tabs as comments. Select "correction" instead!