Oops, an error
Loading. Please wait.

Angel Alcohol Bass Tab

213 views 1 this week
no commentswrite comment
1 2 3 4 5
please rate
add to favorites
launch autoscroll
font size
0
reset
guitar tuner
Autoscroll
slow
fast
+/-
esc
set tempo
stop
Help us to improve Ultimate-Guitar.com Take our survey!
×
Author
Angel Alcohol Bass Tab
Artist: Alkaline Trio
Tabber: Rightclicked

This one's from an old Good Mourning demo (according to the person I got this 
song from). I've also heard it's from Dan's split recordings with Mike Felumee 

(the drummer before Derek) on an Asian Man record. Either way it's a great song.

The bride section is most likely off. It's pretty simple but when I play it I 
throw in some octaves to make it more fun to play and not just 3 notes the 

whole way through.

IMPORTANT! This is a very rare song. I have this song (along with many other 
demos that were rather unreleased). Send me a message on my account if you're 

interested in obtaining this or any other demo songs. 

Also, I'll just say this: Danny loves his octaves.


                                                                      -LEGEND-
                                                         ***********************************
                                                         * > = about 8 times               *
                                                         * ~ = Let ring                    *
                                                         ***********************************


Intro:


|------------------------------|
|-----------7-6-7-9-7-6--------|
|----6>--7>-------------9-7----|
|-7>---------------------------|

|----------------9999----------|
|------------9999----9999------|
|----6>--7>--------------------|
|-7>---------------------------|




Verse (2x):

|------------------------------|
|------------------------------|
|-------7>---------------------|
|-7>-4>----7>-5>-0>-5>---------|




Chorus:


|--------------------|
|--------------------|
|-4>-7>----4>-7>-----|
|-------7>-------7>--|


|-------------------------|
|-------------------------|
|-4>-7>-4>-7>-------------|
|-------------7>-5>-0>----|


*Intro Plays Again*:


|------------------------------|
|-----------7-6-7-9-7-6--------|
|----6>--7>-------------9-7----|
|-7>---------------------------|

|----------------9999----------|
|------------9999----9999------|
|----6>--7>--------------------|
|-7>---------------------------|



Verse (x2):

|------------------------------|
|------------------------------|
|-------7>---------------------|
|-7>-4>----7>-5>-0>-5>---------|



Chorus:

|--------------------|
|--------------------|
|-4>-7>----4>-7>-----|
|-------7>-------7>--|


|-------------------------|
|-------------------------|
|-4>-7>-4>-7>-------------|
|-------------7>-5>-0>----|



Bridge (2x):

|-------------9-----------------|
|-----------9-------------------|
|---------7---------------------|
|-7~-7777-----------------------|

|---------------------------------|
|---------------------------------|
|----------------666-666----------| x2
|-77-777-777-777---------777-777--|

|------------------888-----999-------|
|-777---777--------------------------|
|--------------66------777-----------|
|----555---555-----------------------|



Chorus:

|--------------------|
|--------------------|
|-4>-7>----4>-7>-----|
|-------7>-------7>--|


|-------------------------|
|-------------------------|
|-4>-7>-4>-7>-------------|
|-------------7>-5>-0>----|



Outro:

|-------------------------|
|-------------------------| 3x
|-------------------------|
|-7>-5>-0>----------------|

|-------------------------|
|-------------------------|
|-------------------------|
|-7~-5~-0~----------------|
Suggest correction
What's this?
You can suggest a correction to this tab. Community and Mods will review your correction and vote to approve or reject it.
comments
We did not receive enough feedback on this tab! Please rate:
print report bad tab
1 2 3 4 5
guest
You may want to rate the tab now too:
select rating
Please do not post tabs as comments. Select "correction" instead!