Oops, an error
Loading. Please wait.

Another Innocent Girl Bass Tab

version 2
version 2

Whole song

Interactive

1,978 views 1 this week
1 commentread comment
1 2 3 4 5
please rate
add to favorites
launch autoscroll
font size
0
reset
guitar tuner
Tab Pro tools
  • play this tab
  • loop segment
  • change instrument
  • show fretboard
  • metronome
×
Best way to learn
"Another Innocent Girl"
Autoscroll
slow
fast
+/-
esc
set tempo
stop
Contributor
Difficulty
novice
Intro                             x2
G|---------------------------------|
D|---------------------------------|
A|-----------------5-5-5-5-5-5-5-5-|
E|-5-5-5-5-4-4-4-4-----------------|

Verse 1                           x4
G|---------------------------------|
D|---------------------------------|
A|-----------------5-5-5-5-5-5-5-5-|
E|-5-5-5-5-4-4-4-4-----------------|

Pre Chorus
G|---------------------------------------------------------------|
D|---------------------------------------------------------------|
A|-----------------2-2-2-2/4-4-5-5-5-5-----------------5-5-5-5-5-|
E|-2-2-2-2-0-0-0-0---------------------2-2-2-2-0-0-0-0-----------|

Pre Verse                             x2
G|-------------------------------------|
D|-------------------------------------|
A|---------7-7-7-7-4-4-4-5-5-5-5-7-5-4-|
E|-5-5-5-5-----------------------------|

Verse 2                           x4
G|---------------------------------|
D|---------------------------------|
A|-----------------5-5-5-5-5-5-5-5-|
E|-5-5-5-5-4-4-4-4-----------------|

Pre Chorus
G|---------------------------------------------------------------|
D|---------------------------------------------------------------|
A|-----------------2-2-2-2/4-4-5-5-5-5-----------------5-5-5-5-5-|
E|-2-2-2-2-0-0-0-0---------------------2-2-2-2-0-0-0-0-----------|

Chorus            x2
G|-----------------|
D|-----------------|
A|---------5-5-5-5-|
E|-5-5-5-5---------|

Pre Verse                             x2
G|-------------------------------------|
D|-------------------------------------|
A|---------7-7-7-7-4-4-4-5-5-5-5-7-5-4-|
E|-5-5-5-5-----------------------------|

Verse 3                           x4
G|---------------------------------|
D|---------------------------------|
A|-----------------5-5-5-5-5-5-5-5-|
E|-5-5-5-5-4-4-4-4-----------------|

Pre Chorus                                                      x2
G|---------------------------------------------------------------|
D|---------------------------------------------------------------|
A|-----------------2-2-2-2/4-4-5-5-5-5-----------------5-5-5-5-5-|
E|-2-2-2-2-0-0-0-0---------------------2-2-2-2-0-0-0-0-----------|

Chorus            x4
G|-----------------|
D|-----------------|
A|---------5-5-5-5-|
E|-5-5-5-5---------|

Outro
G|-------------------------------------------|
D|-------------------------------------------|
A|---------5-5-5-5---------5-5-5-5-7-7-7-7-0-|
E|-0-0-0-0---------0-0-0-0-------------------|
comments
We did not receive enough feedback on this tab! Please rate:
print report bad tab
1 2 3 4 5
1 comment total.
0 reply
chrisjenks wrote on June 4 2008, 10:46 pm

sounds good to me...good job!

I want to post or [tab]
guest
You may want to rate the tab now too:
select rating
Please do not post tabs as comments. Select "correction" instead!