Oops, an error
Loading. Please wait.

Armageddon Bass Tab

version 3
version 3

Whole song

Interactive

1,259 views 3 this week
no commentswrite comment
1 2 3 4 5
please rate
add to favorites
launch autoscroll
font size
0
reset
guitar tuner
Autoscroll
slow
fast
+/-
esc
set tempo
stop
Help us to improve Ultimate-Guitar.com Take our survey!
×
Author
Difficulty
intermediate
Bassist: Dan Andriano
Tabbed by: Bizzles
Email: Sandkid6@aol.com

This is my first tab. Rate high.

E= Eleven
T= Twelve
t= Thirteen
F= Fourteen

good luck.

 Intro:
G|---------------------------------------------------------------------------|
D|--6----6--------------6----6--------------6----6---------------------------|
A|79-9-79-9-4444-0000-79-9-79-9-4444-0000-79-9-79-9-4444-0000-22222222-------|
E|---------------------------------------------------------------------------|


Verse:
G|---------------------------------------------------------------------------|
D|----66-------66-------7h9------6677-----66-------66-------7h9--------------|
A|4444--44-4444--44-0000-----7799-----4444--44-4444--44-0000----7799---------|
E|------------------------------------------------------------------7755-----|

Verse cont'd.
G|---------------------------------------------------------------------------|
D|----66-------66-------7h9----6677----66-------66---------------------------|
A|4444--44-4444--44-0000---7799----4444--44-4444--44-00000000-22222222-------|
E|---------------------------------------------------------------------------|

Transition
G|-----------------------------------------|
D|--6----6--------------6----6-------------|
A|79-9-79-9-4444-0000-79-9-79-9-4444-0000--|
E|-----------------------------------------|

Then play the verse again

Then Chorus

Chorus:
G|---------------------------------------------------------------------------|
D|---------------------------------------------------------------------------|
A|77777777777777777777777777777777-4444444444444444-22222222-00000000--------|
E|---------------------------------------------------------------------------|

Chorus cont'd.
G|---------------------------------------------------------------------------------------|
D|---------------------------67976------66------66-------44-------22---------------------|
A|777777777777777777777777-79-----9-4444--444444--44-2222--22-0000--00-------------------|
E|---------------------------------------------------------------------------------------|

Play the intro again
Then verse 3

Verse 3:

G|---------------------------------------------------------------------------|
D|----------66-------66-------7h9--------------66-------66-------7h9-----6677|
A|4~~~--4444--44-4444--44-0000----7799-----4444--44-4444--44-0000----7799----|
E|------------------------------------7755-----------------------------------|

Verse 3 cont'd.
G|---------------------------------------------------------------------------|
D|----66-------66------------------------------------------------------------|
A|4444--44-4444--44-00000000-22222222----------------------------------------|
E|---------------------------------------------------------------------------|

Then play the chorus
Then the outro

Outro:
G|---------------------------------------------------------------------------|
D|----------------------------FF--FF-------------------------------FFttEE----|
A|44444444-66666666-/-TTTTTTTT--TT--TT-44444444-66666666-/-TTTTTTTT------FF--|
E|---------------------------------------------------------------------------|


G|------------------------------------------------------------------|
D|----------------------------FF--FF--------------------------------|
A|44444444-66666666-/-TTTTTTTT--TT--TT-444444444-22222222-00000000--|
E|------------------------------------------------------------------|

Final Chorus (slightly different)
G|---------------------------------------------------------------------|
D|------------------------------------66-------66----------------------|
A|7777777777777777777777777777777-4444--44-4444--44-22222222-00000000--|
E|---------------------------------------------------------------------|

Final Chorus Cont'd.
G|----------------------------------------------------------------------|
D|----------------764----------764------66------66-------44-------22----|
A|7777777777777777---7-77777777---7-4444--444444--44-2222--22-0000--00--|
E|----------------------------------------------------------------------|

End on A|7|

| /  slide up
| \  slide down
| h  hammer-on
| p  pull-off
| ~  vibrato
| +  harmonic
| x  Mute note
Suggest correction
Give kudos to tab author, rate the tab!
1 2 3 4 5
comments
print report bad tab
guest
You may want to rate the tab now too:
select rating
Please do not post tabs as comments. Select "correction" instead!