Oops, an error
Loading. Please wait.

Armageddon Tab

version 4
version 4

Whole song

Interactive

11,093 views 36 this week
2 commentsread comments
1 2 3 4 5
excellent!
x 14
add to favorites
launch autoscroll
font size
0
reset
how to read this tab
guitar tuner
Autoscroll
slow
fast
+/-
esc
set tempo
stop
Help us to improve Ultimate-Guitar.com Take our survey!
×
Author
Artist: Alkaline Trio
Song: Armageddon
Standard Tuning: EADGBe
Tabbed by: Blinkaholic

First and foremost *all* credit for the tab goes to "funkey munkey".  I used his tab as 
base to create mine.  All I did was add the correct timing and changed the tab format so 
reads from the top down.  Enjoy.

Intro
e|--------------------|x2
B|--------------------|
G|-99999999-6666------|
D|-99999999-6666-7777-|
A|-77777777-4444-7777-|
E|---------------5555-|

e|------------------------------------|x1
B|------------------------------------|
G|-999999999999-8888------------------|
D|-xxxxxxxxxxxx-xxxx-9999999999999999-|
A|-777777777777-6666-9999999999999999-|
E|-------------------7777777777777777-|

Verse 1
e|------------------------------------|x3
B|------------------------------------|
G|-6666666666666666----------99999999-|
D|-6666666666666666-77777777-99999999-|
A|-4444444444444444-77777777-77777777-|
E|------------------55555555----------|

e|------------------------------------|x1
B|------------------------------------|
G|-6666666666666666-------------------|
D|-6666666666666666-77777777-22222222-|
A|-4444444444444444-77777777-22222222-|
E|------------------55555555-00000000-|

e|--------------------|x2
B|--------------------|
G|-99999999-6666------|
D|-99999999-6666-7777-|
A|-77777777-4444-7777-|
E|---------------5555-|

Verse 2
e|------------------------------------|x3
B|------------------------------------|
G|-6666666666666666----------99999999-|
D|-6666666666666666-77777777-99999999-|
A|-4444444444444444-77777777-77777777-|
E|------------------55555555----------|

e|------------------------------------|x1
B|------------------------------------|
G|-6666666666666666-------------------|
D|-6666666666666666-77777777-22222222-|
A|-4444444444444444-77777777-22222222-|
E|------------------55555555-00000000-|

Chorus
e|-------------------------------------------|x2
B|-------------------------------------------|
G|-9------6666666666666666-44444444----------|
D|-x(x32)-6666666666666666-44444444-77777777-|
A|-7------4444444444444444-22222222-77777777-|
E|----------------------------------55555555-|

e|--------------------|x2
B|--------------------|
G|-99999999-6666------|
D|-99999999-6666-7777-|
A|-77777777-4444-7777-|
E|---------------5555-|

e|------------------------------------|x1
B|------------------------------------|
G|-999999999999-8888------------------|
D|-xxxxxxxxxxxx-xxxx-9999999999999999-|
A|-777777777777-6666-9999999999999999-|
E|-------------------7777777777777777-|

VERSE 3
e|---------|x1
B|---------|
G|-6-----9-|
D|-6--7--9-|
A|-4--7--7-|
E|----5----|

e|------------------------------------|x2
B|------------------------------------|
G|-6666666666666666----------99999999-|
D|-6666666666666666-77777777-99999999-|
A|-4444444444444444-77777777-77777777-|
E|------------------55555555----------|

e|------------------------------------|x1
B|------------------------------------|
G|-6666666666666666-------------------|
D|-6666666666666666-77777777-22222222-|
A|-4444444444444444-77777777-22222222-|
E|------------------55555555-00000000-|

Chorus
e|-------------------------------------------|x2
B|-------------------------------------------|
G|-9------6666666666666666-44444444----------|
D|-x(x32)-6666666666666666-44444444-77777777-|
A|-7------4444444444444444-22222222-77777777-|
E|----------------------------------55555555-|

INTERLUDE
e|------------------------------------|x4
B|------------------------------------|
G|-66666666-88888888-9999999999999999-|
D|-66666666-88888888-9999999999999999-|
A|-44444444-66666666-7777777777777777-|
E|------------------------------------|

Chorus
e|-------------------------------------------|x2
B|-------------------------------------------|
G|-9------6666666666666666-44444444----------|
D|-x(x32)-6666666666666666-44444444-77777777-|
A|-7------4444444444444444-22222222-77777777-|
E|----------------------------------55555555-|

End On
e|------|
B|------|
G|-9~~~-|
D|-9~~~-|
A|-7~~~-|
E|-0~~~-|

END
Suggest correction
comments
print report bad tab
2 comments total.
0 reply
smartin6988 177 wrote on February 7 2010, 01:56 pm

love this song. good tab

0 reply
DerrekVanRoth 10 wrote on April 3 2012, 09:25 pm

Great song, amazing tab. Definitely the best I've read for this. 5/5

guest
You may want to rate the tab now too:
select rating
Please do not post tabs as comments. Select "correction" instead!