Oops, an error
Loading. Please wait.

Back To Hell Bass Tab

version 1
version 1

Whole song

Interactive

1,888 views 6 this week
1 commentread comment
1 2 3 4 5
please rate
add to favorites
launch autoscroll
font size
0
reset
guitar tuner
Autoscroll
slow
fast
+/-
esc
set tempo
stop
Help us to improve Ultimate-Guitar.com Take our survey!
×
Author
Difficulty
This song's so easy.

Intro
G|------------------|    |--------------------------------|
D|------------------|    |--------------------------------|
A|-----5x16-2x8-4x8-| x2 |--------------5-----------------|
E|2x32--------------|    |2222220-222222--2222220-22222222|

Verse
|--------------------------------------------|
|--------------------------------------------|
|------------------5x16------------5x16------|
|2x28-0x4-2x28-0x4------0x16--2x32------0x16-|

Break
|--------------------------------|
|--------------------------------|
|--------------5-----------------|
|2222220-222222--2222220-22222222|

Verse
|--------------------------------------------|
|--------------------------------------------|
|------------------5x16------------5x16------|
|2x28-0x4-2x28-0x4------0x16--2x32------0x16-|

Pre-chorus
|--------------------------|
|--------------------------|
|--------------5-----------|
|2222220-222222--2222220-2R|

Chorus
|-------------------|----------------------|
|-------------------|----------------------|
|-----5x16----------|-----5x16----------5x8|
|2x16------5x16-0x16|2x16------5x16-0x8----|

Break
|--------------------------------|
|--------------------------------|
|--------------5-----------------|
|2222220-222222--2222220-22222222|

Verse
|-------------------------------------------|
|-------------------------------------------|
|------------------5x16-7x16------5x16-7x16-|
|2x28-0x4-2x28-0x4-----------2x32-----------|

Pre-chorus
|--------------------------|
|--------------------------|
|--------------5-----------|
|2222220-222222--2222220-2R|

Chorus
|-------------------|----------------------|
|-------------------|----------------------|
|-----5x16----------|-----5x16----------5x8|
|2x16------5x16-0x16|2x16------5x16-0x8----|

Break
|--------------------------------|-------------------------------|
|--------------------------------|-------------------------------|
|--------------5-----------------|-------------55----------------|
|2222220-222222--2222220-22222222|2222200222222--2222220022222222|

|---------------------------------------|
|---------------------------------------|
|5x16-2x8-4x8---------------5-----------|
|-------------2222220-222222--2222220-2R|

Chorus
|-------------------|----------------------|
|-------------------|----------------------|
|-----5x16----------|-----5x16----------5x8|
|2x16------5x16-0x16|2x16------5x16-0x8----|

End
|-----------------|
|-----------------|
|--------------5--|
|2222220-222222--2|

R=rest
Suggest correction
What's this?
You can suggest a correction to this tab. Community and Mods will review your correction and vote to approve or reject it.
comments
We did not receive enough feedback on this tab! Please rate:
print report bad tab
1 2 3 4 5
1 comment total.
0 reply
chrisjenks 2,378 wrote on August 20 2008, 12:41 pm

good job, yet again. even though this song is so easy it is great fun to play

guest
You may want to rate the tab now too:
select rating
Please do not post tabs as comments. Select "correction" instead!