Oops, an error
Loading. Please wait.

Back To Hell Tab

version 3
version 3

Whole song

Interactive

539 views 1 this week
no commentswrite comment
1 2 3 4 5
please rate
add to favorites
launch autoscroll
font size
0
reset
how to read this tab
guitar tuner
Autoscroll
slow
fast
+/-
esc
set tempo
stop
Help us to improve Ultimate-Guitar.com Take our survey!
×
Author
Difficulty
intermediate
-------------------------------------------------------------------------------
                             BACK TO HELL - Alkaline Trio
-------------------------------------------------------------------------------
Tabbed by:unourrit01
Email:rob10293@comcast.net


INTRO
e|--------------------------------------------------------------------|
B|--------------------------------------------------------------------|
G|-14-13-16-13-14-13-11-9-14-13-16-13-11-9-7-6------------------------|
D|--------------------------------------------------------------------|
A|-12-11-14-11-12-11--9-7-12-11-14-11-9--7-5-4------------------------|
E|--------------------------------------------------------------------|

Riff-1
e|--------------------------------------------------------------------|
B|--------------------------------------------------------------------|
G|-6666667---6666667----6666667---------------------------------------|
D|--------------------------------------------------------------------|
A|-4444445---4444445----4444445---------------------------------------|
E|--------------------------------------------------------------------|

the intro riff has 3 fills
e|--------------------------------------------------------------------|
B|-fill-1---------fill-2---------fill-3-------------------------------|
G|-6666667--------66666676-------13-13-13--14-13----------------------|
D|--------------------------------------------------------------------|
A|-4444445--------44444454-------11-11-11--12-11----------------------|
E|--------------------------------------------------------------------|

VERSE
e|--------------------------------------------------------------------|
B|--------------------------------------------------------------------|
G|--------------------------------------------------------------------|
D|------------------6-7-----9-------------7---9-----------------------|
A|-4-------2-4------4-5-----7----4--------5---7-----------------------|
E|-2-------0-2-------------------2------------------------------------|

Chorus
e|--------------------------------------------|
B|--------------------------------------------|
G|--------------------------------------------|
D|---------7---------------9------------------|
A|-4-(16x)-5-(16x)-7-(16x)-7-(16x)------------|
E|-2---------------5--------------------------|

Riff-2
e|--------------------------------------------------------------------|
B|--------------------------------------------------------------------|
G|--14-------13------11-----------------------------------------------|
D|--------------------------------------------------------------------|
A|--12-(16x)-11-(8x)-9-(8x)-------------------------------------------|
E|--------------------------------------------------------------------|

Order:
Intro 2x
Riff-1
Fill-1
Verse
Riff-1
Fill-1
Verse
Riff-1
Fill-2
Chorus 2x
Riff-1
Fill-1
Verse
Riff-1
Fill-2
Chorus 2x
Riff-1
Fill-3
Riff-1
Fill-3
Riff-2
Riff-1
Fill-1
Chorus 2x
Riff-1
Fill-2

| /  slide up
| \  slide down
| h  hammer-on
| p  pull-off
| ~  vibrato
| +  harmonic
| x  Mute note
===============================================================================
Suggest correction
Give kudos to tab author, rate the tab!
1 2 3 4 5
comments
print report bad tab
guest
You may want to rate the tab now too:
select rating
Wanna post a correction for this tab? Suggest correction