Oops, an error
Loading. Please wait.

Balanced On A Shelf Tab

1,362 views 3 this week
no commentswrite comment
1 2 3 4 5
please rate
add to favorites
launch autoscroll
font size
0
reset
how to read this tab
guitar tuner
Autoscroll
slow
fast
+/-
esc
set tempo
stop
Help us to improve Ultimate-Guitar.com Take our survey!
×
Author
Difficulty
ProZAK 50
novice
Balanced on a Shelf
Alkaline Trio

INTRO (Guitar I)
|----------------------------------------|
|----------------------------------------|
|----------------------------------------|
|----------------------------------------|
|----------------------------------------|
|----4----0----4----0----4----0----2----2| x3

INTRO (Guitar II)
|-------------------------------------------------------|
|--------5-4~~~~7-4---4------------5-4~~~~------2-------|
|------4------------6---4-3------4------------3---3-4-3-|
|----6-------------------------6----------2/4-----------|
|-------------------------------------------------------|
|-------------------------------------------------------|

-------------------------------------------------------|
--------5-4~~~~7-4---4------------5-4~~~~------2-------|
------4------------6---4-3------4------------3---3-4-3-|
----6-------------------------6----------2/4-----------|
-------------------------------------------------------|
-------------------------------------------------------|

--------------|
--------------|
--------------|
-4-1-2--------|
-------4-2-1--|
-------------4|

VERSE
|--------------------|
|--------------------|
|--------------------|
|--------------------|
|----6--------4----2-|
|----4--------2----0-|
A somwhat...very...hell

--------------------|
--------------------|
--------------------|
------------------2-|
--------6----4----2-|
--------4----2----0-|
To live... looking... yourself

---------------------|
---------------------|
--------------4------|
----6----2----4----4-|
----6----2----2----4-|
----4----0---------2-|
see life...simpler...balanced...a shelf...

----------------------|
----------------------|
----2-----------------|
----2--------4--------|
----0--------4--------|
-------------2--------|
been unperfectly...sun now look...

-------------------------|
-------------------------|
-------------------------|
--------2----6----4----2-|
--------2----6----4----2-|
--------0----4----2----0-|
everyone... now... name... real?

-------------------|
-------------------|
-------------------|
----6----4----2----|
----6----4----2----|
----4----2----0----|
habits... become... appeal

CHORUS (Guitar I)
|----------------------------------|
|----------------------------------|
|----4-----------------4-----------|
|----4--------2--------4--------2--|
|----2--------2--------2--------2--|
|-------------0-----------------0--| x2
it's where...wrong?... where... wrong?

----------------|
----------------|
-------4--------|
----6--4--2--4--|
----6--2--2--4--|
----4-----0--2--| x2
Well first of all..

----------------------------------------|
----------------------------------------|
---------4------------------------------|
----6----4----2----4----2--4--5----6----|
----6----2----2----4----2--4--4----6----|
----4---------0----2----0--2--2----4----|
inside...yourself...care..what you saw...

CHROUS (Guitar II)
|----------------------------------------------|
|----7-----7-----7-----7-----7----7-5-4---7--5-|
|-------4-----4-----4-----4-----4-------4------|
|----------------------------------------------|
|----------------------------------------------|
|----------------------------------------------|
And then it's where did you go wrong, where did you go wrong?

-----------------------------------------------|
-----7-----7-----7-----7-----7----7-5-4---7h9p7|
--------4-----4-----4-----4-----4-------4------|
-----------------------------------------------|
-----------------------------------------------|
-----------------------------------------------|
...screaming where did you go wrong, where did you go wrong?

INTRO (Guitar II)
INTRO (Guitar I)
|---------------------------------------|
|---------------------------------------|
|---------------------------------------|
|----6----2----6----2----6----2----4----|
|----6----2----6----2----6----2----4----|
|----4----0----4----0----4----0----2----|

VERSE 2
(Guitar II)
These notes play over the first part of the verse, listen for strumming pattern.
|----11--     --7--|
|-------9     ---5-|
|-------- and -----|
|--------     -----|
|--------     -----|
|--------     -----|

INTRO
VERSE
CHORUS
INTRO
VERSE
CHORUS
INTRO
Suggest correction new What's this?
You can suggest a correction to this tab. Community and Mods will review your correction and vote to approve or reject it.
comments
We did not receive enough feedback on this tab! Please rate:
print report bad tab
1 2 3 4 5
guest
You may want to rate the tab now too:
select rating
Please do not post tabs as comments. Select "correction" instead!