Oops, an error
Loading. Please wait.

Bleeder Tab

version 4
version 4

Whole song

Interactive

1,119 views 1 this week
no commentswrite comment
1 2 3 4 5
1 last vote to show rating
add to favorites
launch autoscroll
font size
0
reset
how to read this tab
guitar tuner
Autoscroll
slow
fast
+/-
esc
set tempo
stop
Help us to improve Ultimate-Guitar.com Take our survey!
×
Author
Difficulty
intermediate
-----------------------------------------------------------------------------
                          Bleeder - Alkaline Trio
-----------------------------------------------------------------------------
Tabbed by: ehbacon
E-mail: ehbacon@att.net

Tuning: Standard (full distortion throughout the song)

Intro/main riff (played 4 times):

e|-----------------|
B|-----------------|
G|-----------------|
D|-2-2-2-3-3-3-3-3-|
A|-3-3-3-3-3-3-3-3-|
E|-----------------|

Verse (played 4 times, first two palm muted the last two regular):

e|-------------------------------------------------|----------------|----|
B|-------------------------------------------------|----------------|----|
G|-------------------------------------------------|----------------|----|
D|-2-2-2-3-3-3-3-3-2-2-2-3-3-3-3-3-----------------|----------------|-3--|  
A|-3-3-3-3-3-3-3-3-3-3-3-3-3-3-3-3-2-2-2-3-3-3-3-3-|3-3-3-3-3-3-3-3-|-3--| 
E|---------------------------------3-3-3-3-3-3-3-3-|1-1-1-1-1-1-1-1-|-1--|  
                                                                      ^
   you came to me like a dream...                                alternate 
                                                              ending: played 
                                                              the 2nd and 4th
                                                              time, not palm
                                                              muted.
Chorus (first way):

e|----------------------------------------------------------------------|
B|----------------------------------------------------------------------|
G|-12121212121212121010101099995555555555555555-------------------------|
D|-12121212121212121010101099995555555555555555-555555555555555522222222|
A|-1010101010101010-8-8-8-877773333333333333333-555555555555555522222222|
E|----------------------------------------------333333333333333300000000|

   One thing that I've never said...

e|----------|
B|----------|
G|----------|
D|-33355555-|
A|-33355555-|
E|-11133333-|

Chorus (second way):

e|-----------------------------------------------------|
B|-----------------------------------------------------|
G|-121212--1010-99-5555555555555555--------------------|
D|-121212--1010-99-5555555555555555-55--55-33-33355555-|
A|-101010---8-8-77-3333333333333333-55--55-33-33355555-|
E|----------------------------------33--33-11-11133333-|

   One thing that I've never said...

pre-Bridge:               played twice
   palm muted             v    
e|----------------------------------|----------------------------------|
B|----------------------------------|----------------------------------|
G|----------------------------------|----------------------------------|
D|-55-55-55-55-5555-----------------|2222222222222222-5555555555555555-|
A|-3333333333333333-33-33-33-33-3333|2222222222222222-5555555555555555-|
E|------------------1111111111111111|0000000000000000-3333333333333333-|

   For what you never did...         Never did... 

Bridge (played four times, in 1/32 notes):

e|--------------------------------------------------------------------------|
B|--------------------------------------------------------------------------|
G|-55555555555555555555555555555555-----------------------------------------|
D|-XXXXXXXXXXXXXXXXXXXXXXXXXXXXXXXX3333333333333333555555553333333333333333-|
A|-33333333333333333333333333333333XXXXXXXXXXXXXXXXXXXXXXXXXXXXXXXXXXXXXXXX-|
E|---------------------------------1111111111111111333333331111111111111111-|

   For what you never did... 

Solo part one (played in 1/32 notes, played twice):

e|--------------------------------------------------------------------|
B|--------------------------------------------------------------------|
G|-555555555555555555555555544444444----------------------------------|
D|-XXXXXXXXXXXXXXXXXXXXXXXXXXXXXXXXX-33333333333333333333333333333333-|
A|-333333333333333333333333322222222-XXXXXXXXXXXXXXXXXXXXXXXXXXXXXXXX-|
E|-----------------------------------11111111111111111111111111111111-|

Solo part two (played in 1/32 notes, played twice):

e|----------------------------------------------------------------------|
B|----------------------------------------------------------------------|
G|-555555555555555555555555599999999777777775555------------------------|
D|-XXXXXXXXXXXXXXXXXXXXXXXXXXXXXXXXXXXXXXXXXXXXX333333333333333377777777|
A|-333333333333333333333333377777777555555553333XXXXXXXXXXXXXXXXXXXXXXXX|
E|----------------------------------------------111111111111111155555555|
               
             played after second time
e|---------|---------------------------------------|
B|---------|---------------------------------------|
G|---------|----------99997777---------------------|
D|-55555555|-22222222-XXXXXXXX-5(5)XXXXXXXXXXXXXXX-|
A|-XXXXXXXX|-22222222-77775555-5(5)XXXXXXXXXXXXXXX-|
E|-33333333|-00000000----------3(3)XXXXXXXXXXXXXXX-|

Outro:

e|-------------------------|
B|-------------------------|
G|----------------------5~-|
D|-(verse-played-twice)-5~-|
A|----------------------3~-|
E|-------------------------|

Order:
intro
verse
chorus (first way)
verse  (no palm mute in verse)
chorus (second way)
main riff (played 4 times)
verse
chorus (second way)
chorus (first way)
pre-bridge
bridge
solo
chorus (first way)
chorus (first way)
outro
************************************
| ~   vibrato
| x   Mute note
************************************
Suggest correction
Give kudos to tab author, rate the tab!
1 2 3 4 5
comments
print report bad tab
guest
You may want to rate the tab now too:
select rating
Wanna post a correction for this tab? Suggest correction