Oops, an error
Loading. Please wait.

Bloodied Up Bass Tab

1,543 views 1 this week
no commentswrite comment
1 2 3 4 5
please rate
add to favorites
launch autoscroll
font size
0
reset
guitar tuner
Autoscroll
slow
fast
+/-
esc
set tempo
stop
Help us to improve Ultimate-Guitar.com Take our survey!
×
Contributor
Embroglio 271
"Bloodied Up" by Alkaline Trio for bass guitar.

Tabbed by Greg Mitchell

Standard Tuning

> Means strum the note.

Intro:
G|---------------|
D|---------------|
A|-0>>-4>-5>-----| x2
E|-----------000-|

Verse(Pt.1):
G|-----------|
D|-----------|
A|-0>>-4>-5>-| x2
E|-----------|

Verse(Pt.2)
G|-------------4-2-1-------|
D|----2h4p2----------------|
A|-0>-------0>-------4>-5>-| x1
E|-------------------------|

Verse(Pt.1) x1

Intro x2
Verse(Pt.1)x2
Verse(Pt.2)x1
Verse(Pt.1)x1

Chorus:
G|---------------------------------|
D|------------2222------2222-------|
A|-0>------------------------5>-7>-| x2
E|----2>-0000------0000------------|

Intro x2
Verse(Pt.1)x2
Verse(Pt.2)x1
Verse(Pt.1)x1
Intro x2

Bridge:
G|-------------44-22-11-22-------|
D|------2h4p2--------------------|
A|-0000--------------------4>-5>-|
E|-------------------------------|

Chorus x2(Ring first note instead of strumming).


Outro:
G|---------------------------------|
D|------------22-------22----------|
A|-0>---------------------5>-7>-0*-|
E|----2>-00-0----000-0-------------|

Good song.  The tab isn't 100% perfect but there are no other tabs for it, so I figured 
give it a shot.
comments
We did not receive enough feedback on this tab! Please rate:
print report bad tab
1 2 3 4 5
I want to post or [tab]
guest
You may want to rate the tab now too:
select rating
Please do not post tabs as comments. Select "correction" instead!