Oops, an error
Loading. Please wait.

Blue Carolina Bass Tab

version 1
version 1

Whole song

Interactive

1,064 views 1 this week
no commentswrite comment
1 2 3 4 5
worth learning
x 2
add to favorites
launch autoscroll
font size
0
reset
guitar tuner
Tab Pro tools
  • play this tab
  • loop segment
  • change instrument
  • show fretboard
  • metronome
Autoscroll
slow
fast
+/-
esc
set tempo
stop
Contributor
*$*$*$*$*$*$**%*%*%*%*%*%*$*$*$*$*$*%*%*%*%$*$*$*$*$*%*%*%*%*%*$*$*$*$*%*%*%
Song:Blue Carolina
Band: The Alkaline Trio
Tunning: Standard EADGBe
Tabbed by: Trevor aka blinkrocker182
Comments: i think youll liek this song on bass its sounds good n its really easy so if 
like it rate it and you can email me at foverino2002@netscape.net and my im is guitarplayr92489
INTRO AND VERSE:

G [------------------------------------------------------------------|
D [------------------------------------------------------------------|
A [-7----0----2----7----5----3----5----7-7-7-7-7-7-7-7-7-7-7---------|
E [------------------------------------------------------------------|
CHORUS:
G [------------------------------------------------------------------|
D [------------------------------------------------------------------|
A [-3--------5-----------------3-3-3-3--5-5-5-5----------------------|
E [-------------------0-0-0-0----------------------------------------|


G [------------------------------------------------------------------|
D [---------2-2-2-2---------2-2-2-2---------------------THEN---------|
A [-2-2-2-2---------2-2-2-2---------3-3-3-3--5-5-5-5-----------------|
E [------------------------------------------------------------------|


SECOND CHORUS:

G [------------------------------------------------------------------|
D [------------------------------------------------------------------|
A [-3-----5--------------3-3-3-3--5-5-5-5----------------------------|
E [-------------0-0-0-0----------------------------------------------|

Repeat this the second timE:
G [------------------------------------------------------------------|
D [---------2-2-2-2---------2-2-2-2---------------------THEN---------|
A [-2-2-2-2---------2-2-2-2---------3-3-3-3--5-5-5-5-----------------|
E [------------------------------------------------------------------|

INTERLUDE:

G [------------------------------------------------------------------|
D [-4-4-4-4-4-4-4-4-5-5-5-5-5-5-5-5-----------------5-5-5-5-5-5-5-5--|
A [---------------------------------2-2-2-2-2-2-2-2------------------|
E [------------------------------------------------------------------|


G [------------------------------------------------------------------|
D [---------2-2-2-2---------2-2-2-2---------------------THEN---------|
A [-2-2-2-2---------2-2-2-2---------3-3-3-3--5-5-5-5-----------------|
E [------------------------------------------------------------------|

G [------------------------------------------------------------------|
D [------------------------------------------------------------------|
A [-3-3-3-3-3-3-3-3-0-0-0-0-5-5-5-5-5-5-5-5-3-3-3-3-3-3-3-3-3--------|
E [------------------------------------------------------------------|

G [---------------------------------------------|
D [---------------------------------------------|
A [-7-7-7-7--5-5-5-5--3-3-3-3--3-3-3-3--5-5-5-5-|
E [---------------------------------------------|

OUTRO CHORUS:

G [------------------------------------------------------------------|
D [------------------------------------------------------------------|
A [-3-3-3-3--5-5-5-5-----------3-3-3-3--5-5-5-5----------------------|
E [-------------------0-0-0-0----------------------------------------|

G [------------------------------------------------------------------|
D [------------------------------------------------------------------|
A [3-3-3-3-5-5-5-5---------3-3-3-3-5-5-5-5---------3-3-3-3-5-5-5-5---|
E [----------------0-0-0-0--------------------0-0-0-0----------------|

G [------------------------------------------------------------------|
D [------------------------------------------------------------------|
A [-7-7-7-7-----------7-7-7-7----------7-7-7-7--5-5-5-5--------------|
E [----------5-5-5-5-----------5-5-5-5-------------------------------|


END:


G [-------------------------------------|
D [-------------------------------------|
A [-------------------------------------|
E [-0-0-0-------------------------------|

HAVE FUN!

ORDER:INTRO
VERSE x2
CHORUS
VERSE x2
SECOND CHORUS
INTERLUDE
OUTRO CHORUS
END
comments
We did not receive enough feedback on this tab! Please rate:
print report bad tab
1 2 3 4 5
I want to post or [tab]
guest
You may want to rate the tab now too:
select rating
Please do not post tabs as comments. Select "correction" instead!