Oops, an error
Loading. Please wait.

Blue Carolina Tab

version 2
version 2

Whole song

Interactive

972 views 1 this week
no commentswrite comment
1 2 3 4 5
accurate
x 5
add to favorites
launch autoscroll
font size
0
reset
how to read this tab
guitar tuner
Tab Pro tools
  • play this tab
  • loop segment
  • change instrument
  • show fretboard
  • metronome
×
Best way to learn
"Blue Carolina"
Autoscroll
slow
fast
+/-
esc
set tempo
stop
Contributor
------------------------------------------------------------
                Alkaline Trio- Blue Carolina
------------------------------------------------------------
Tabber: Array45
Email: Array45@aol.com

Hey. this is Blue Carolina by Alkaline Trio. its a great song. it took me a
while to figure out the song but its pretty easy when its tabbed like this.



 E5 A5 B5 E5  D5  C5  D5  E5
------------------------------|
------------------------------|
------------------------------| X3
--9--------9------------------|
--7--7--9--7--12--10--12--14--|
-----5--7-----10--8---10--12--|
                          X16


  C5    D5
--------------|
--------------|
--------------|
--------------|
--10----12----|
--8-----10----|


 G5   C5   D5
----------------|
----------------|
----------------|
----------------|
--5---10---12---|
--3---8----10---|
  X8  X8  X16


  C5   D5
--------------|
--------------|
--------------|
--------------|
--10----12----|
--8-----10----|


 G5   C5   D5
----------------|
----------------|
----------------| X2
----------------|
--5---10---12---|
--3---8----10---|
 X8  X8    X16


 E5    A5  E5   A5     C5  D5  D5
-----------------------------------|
-----------------------------------|
-----------------------------------|
-----------------------------------|
--2-XX-7-XX-2-XX-7-XX--10---12--14-|
--0-XX-5-XX-0-XX-5-XX--8----10--12-|
                       X7   X7  x16


 E5 A5 B5 E5  D5  C5  D5  E5
------------------------------|
------------------------------|
------------------------------| X3
--9--------9------------------|
--7--7--9--7--12--10--12--14--|
-----5--7-----10--8---10--12--|
                          X16


  C5  D5
-----------|
-----------|
-----------|
-----------|
--10--12---|
--8---10---|


  G5  C5   D5
----------------|
----------------|
----------------|
----------------|
--5---10---12---|
--3---8----10---|
  X8  X8  X16


  C5  D5
-----------|
-----------|
-----------|
-----------|
--10--12---|
--8---10---|


 G5   C5   D5
----------------|
----------------|
----------------| x2
----------------|
--5---10---12---|
--3---8----10---|
  X8  X8  X16

  E5  A5    E5   A5   C5    D5
--------------------------------|
--------------------------------|
--------------------------------|
--------------------------------|
--2-XX-7-XX-2-XX-7-XX--10---12--|
--0-XX-5-XX-0-XX-5-XX--8----10--|
                       X7   X7

 E5  A5
--------|
--------|
--------| x2
--------|
--2--7--|
--0--5--|
 x?  x?


  C5  D5
----------|
----------|
----------|
----------|
--10--12--|
--8---10--|
 x16  x16

 B5
------|
------|
------| x16
------|
--9---|
--7---|
  .

  C5  G5   C5   G5  C#5  C5  G5
-----------------------------------|
-----------------------------------|
-----------------------------------|
-----------------------------------|
--10---5---10---5---11---10---5----|
--8----3---8----3---9----8----3----|
  .    .   .    .   .    .    .
  x?   x?  x?   x?  x?   x?   x?

 E5   C5   D5
----------------|
----------------|
----------------|
----------------|
--2---10---12---|
--0---8----10---|
  x8  x8   x8

  C5  D5
----------|
----------|
----------|
----------|
--10--12--|
--8---10--|
 x16  x16

  G5  C5   D5
----------------|
----------------|
----------------|
----------------|
--5---10---12---|
--3---8----10---|
  X8  X8   X16

  C5   D5
----------|
----------|
----------|
----------|
--10--12--|
--8---10--|
  x16 x16

  G5  C5    G5
----------------|
----------------|
----------------| X2
----------------|
--5---10---12---|
--3---8----10---|
  X8  X8   X16

  E5 A5
--------|
--------|
--------| x6
--------|
--2--7--|
--0--5--|
 x?  x?

  E5
-------|
-------|
-------|
-------|
--2xx--|
--0xx--|


. = palm mute
/ = slide up
\ = slide down

okay thats it. i think its almost 100% correct. the ending is a little off but i
think its really close. the rest of the song is 100% correct.
comments
print report bad tab
I want to post or [tab]
guest
You may want to rate the tab now too:
select rating
Please do not post tabs as comments. Select "correction" instead!