Oops, an error
Loading. Please wait.

Burn Tab

version 2
version 2

Whole song

Interactive

4,116 views 1 this week
no commentswrite comment
1 2 3 4 5
accurate
x 4
add to favorites
launch autoscroll
font size
0
reset
how to read this tab
guitar tuner
Tab Pro tools
  • play this tab
  • loop segment
  • change instrument
  • show fretboard
  • metronome
×
Best way to learn
"Burn"
Autoscroll
slow
fast
+/-
esc
set tempo
stop
ALKALINE TRIO
BURN
CRIMSON

INTRO/VERSE
e|-------------------------------------------|
B|-------------------------------------------|
G|-------------------------------------------|
D|-------------11-11-9-9-------------9-9-9-9-|
A|--6-6--6-6---9--9--7-7---6-6--6-6--6-6/7-7-|
E|--4-4--4-4---------------4-4--4-4----------|

CHORUS
e|----------------------   ----------------------|
B|----------------------   ----------------------|
G|----------------------   ----------------------|
D|--22222222-6666-4444--   -22222222-4444-55555--|
A|--22222222-6666-4444 -   -22222222-4444-55555--|
E|--00000000-4444-2222--x3 -00000000-2222-33333--|

PRE VERSE
e|--------------    ----------------|
B|--------------    ----------------|
G|--------------    ----------------|
D|-6-6--6-6--9~~    --9-9-9-99------|
A|-6-6--6-6--6~~    --6*6*6*66--2~--|
E|-4-4--4-4--0~~-x3 ------------0~--|

INTERLUDE/END OF LAST CHORUS
e|------------------------------------------------|
B|------------------------------------------------|
G|-----4-------------4-----------4----------------|
D|--6--4--2--4----4--4--2~----6--4--2--4----2--4--|
A|--6--2--2--4----4--2--2~----6--2--2--4----2--4--|
E|--4-----0--2----6-----0~----4-----0--2----0--2--|

The first time is on piano (obviously) and the second time (end of last chorus), strum 
above - listen for the strumming of all of the above - I don't have enough time right now 
write it out!

OUTRO - Just repeat the first part of the Pre-verse.

If you need ANY Alkaline Trio tabs, old or new, just e-mail me. I don't have time to 
them, so if you've any certain requests, e-mail me. When it comes to Trio, I don't usually 
so I can pretty much guarantee that they're all 100% correct. Later! Kev

Corrections/requests - bleeder_@hotmail.com
comments
print report bad tab
I want to post or [tab]
guest
You may want to rate the tab now too:
select rating
Please do not post tabs as comments. Select "correction" instead!