Oops, an error
Loading. Please wait.

Burned Is The House Bass Tab

1,577 views 1 this week
1 commentread comment
1 2 3 4 5
please rate
add to favorites
launch autoscroll
font size
0
reset
guitar tuner
Tab Pro tools
  • play this tab
  • loop segment
  • change instrument
  • show fretboard
  • metronome
×
Best way to learn
"Burned Is The House"
Autoscroll
slow
fast
+/-
esc
set tempo
stop
Contributor
Alkaline Trio
Burned Is The House      
STANDARD TUNING

(This is a copy and paste off my album tab. Apparently people have been requesting 
the song but haven't checked for album tabs...)

You'll have to work out the rhythm, I'm just giving you the notes.

Intro:
|----------------|--------------|----------------|----------------|
|--------9-------|11--11--7--7--|----------------|--------7777----|
|00000000-0000000|--00--00-00-00|5555555555555555|45555555----5555|
|----------------|--------------|----------------|----------------|

|----------------|--------------|----------------|----------------|
|--------9-------|11--11--7--7--|----------------|----------------|
|00000000-0000000|--00--00-00-00|5555555555555555|5555555555555555|
|----------------|--------------|----------------|----------------|

First Verse:
|----------------|-------------|-----------------|----------------|
|----------------|-------------|-----------------|----------------|
|0---------------|-------4-----|5-R-5-0-5-R-5-5h7|5-R-5-0-5-4-2-4-|
|----------------|-------------|-----------------|----------------|

|--------------9-|9----7-6--4--|-----------------|----------------|
|----------------|-------------|-----------------|----------------|
|0---------------|-------------|5-R-5-0-5-R-5-5h7|5-R-5-0-5-4-2-4-|
|----------------|-------------|-----------------|----------------|

Bridge:
|----------------|----------------|----------------|----------------|
|----------------|----------------|----------------|----------------|
|2-2-2-2-2-2-2-2-|2-2-2-2-2-2-2-2-|5-5-5-5-5-5-5-5-|5-5-5-5-5-5-5-5-|
|----------------|----------------|----------------|----------------|

Break:
|----------------|-------------|
|--------------9-|9----7-6-----|
|0---------------|-------------|
|----------------|-------------|

Second Verse:
|----------------|-------------|-----------------|----------------|
|-------------11-|11---9-7--6--|-----------------|----------------|
|0---------------|-------------|5-R-5-0-5-R-5-5h7|5-R-5-0-5-4-2-4-|
|----------------|-------------|-----------------|----------------|

|--------------9-|9----7-6--4--|-----------------|----------------|
|----------------|-------------|-----------------|----------------|
|0---------------|-------------|5-R-5-0-5-R-5-5h7|5-R-5-0-5-4-2-4-|
|----------------|-------------|-----------------|----------------|

Bridge:
|----------------|----------------|----------------|----------------|
|----------------|----------------|7-----7---------|----------------|
|2-2-2-2-2-2-2-2-|2-2-2-2-2-2-2-2-|--5-5---5-5-5-5-|5-5-5-5-5-5-5-5-|
|----------------|----------------|----------------|----------------|

Chorus:
|----------------|----------------|----------------|----------------|
|----------------|----------------|----------------|----------------|
|0000000000000000|5555555555555555|----------------|----------------|
|----------------|----------------|2222222222222222|0000000000000000|

 T-T-T  T-T-T   T-T-T
|--------------|------------------|
|--------------|------------------|
|--------------|5-5-5--5-5-5-5----| x2
|2-2----5-5----|------------------|

|----------------|----------------|----------------|----------------|
|----------------|----------------|----------------|----------------|
|0000000000000000|5555555555555555|----------------|----------------|
|----------------|----------------|2222222222222222|0000000000000000|

 T-T-T  T-T-T   T-T-T           T-T-T  T-T-T   T-T-T
|--------------|---------------|--------------|----------------|
|--------------|---------------|--------------|----------------|
|--------------|5-5-5--5-5-5-5-|--------------|5-5-5-----------|
|2-2----5-5----|---------------|2-2----5-5----|-------0-0-0-0--|

"Whoa!":
|---------------|----------------|----------------|----------------|
|---------------|----------------|----------------|----------------|
|000000000000000|0000000000000000|5555555555555555|5555555555555555|
|---------------|----------------|----------------|----------------|

|---------------|----------------|----------------|----------------|
|---------------|----------------|----------------|----------------|
|000000000000000|----------------|----------------|5---------------|
|---------------|2222222222222222|0000000000000000|--------0-------|

Post Chorus:
|----------------|--------------|----------------|----------------|
|--------9-------|11--11--7--7--|----------------|----------------|
|00000000-0000000|--00--00-00-00|5555555555555555|5555555555555555|
|----------------|--------------|----------------|----------------|

Third verse:
Same as second.

Bridge:
Same as before

Chorus:
Same, without the "Whoa" bit on the end

Middle 8:
|-----|-----|-----|-----|-----|----------|-----|-------|
|-----|-----|-----|-----|-----|----------|-----|---77--|
|0----|-----|-----|-----|-----|--11-11-12|5----|-------|
|-----|-----|2----|-----|0----|----------|-----|-------|


|--------------9-|9----7-6--4--|-----------------|----------------|
|----------------|-------------|---------------4-|4---------------|
|0---------------|-------------|-----------------|----------------|
|----------------|-------------|2----------------|-----2-2--------|

|----------------|---------------|---------------|----------------|
|----------------|---------------|---------------|----------------|
|----------------|14--12--11--9--|5--------------|----------------|
|0---------------|---------------|---------------|----------------|

"Whoa!":
|---------------|----------------|----------------|----------------|
|---------------|----------------|----------------|----------------|
|000000000000000|0000000000000000|5555555555555555|5555555555555555|
|---------------|----------------|----------------|----------------|

|---------------|----------------|----------------|----------------|
|---------------|----------------|----------------|----------------|
|000000000000000|----------------|----------------|5555555577777777|
|---------------|2222222222222222|0000000000000000|----------------|

|---------------|----------------|----------------|----------------|
|---------------|----------------|----------------|----------------|
|000000000000000|0000000000000000|5555555555555555|5555555555555555|
|---------------|----------------|----------------|----------------|

|---------------|----------------|----------------|----------------|
|---------------|----------------|----------------|----------------|
|000000000000000|----------------|----------------|5---------------|
|---------------|2222222222222222|0000000000000000|--------0-------|

KEY:
h      Hammer-On                            e.g. 1h2
p      Pull off                             e.g. 2p0
g      Grace note (very fast hammer-on)     e.g. 2g3
T-T-T  Triplets (seen above the notes)
/      Slide up the fretboard to the note   e.g. 0/8
\      Slide down the fretboard             e.g. 8\0
()     Optional note/quiet note             e.g. (0)
R      Rest
x      Play the note that made times        e.g. x16
x      Dead note                            e.g. x


comments
We did not receive enough feedback on this tab! Please rate:
print report bad tab
1 2 3 4 5
1 comment total.
0 reply
manAVECbass wrote on April 18 2009, 09:03 am

thanks for posting even if it's just copied off the album tab. 5* no doubt.

I want to post or [tab]
guest
You may want to rate the tab now too:
select rating
Please do not post tabs as comments. Select "correction" instead!