Oops, an error
Loading. Please wait.

Bye Bye Love Tab

1,293 views 1 this week
no commentswrite comment
1 2 3 4 5
please rate
add to favorites
launch autoscroll
font size
0
reset
how to read this tab
guitar tuner
Autoscroll
slow
fast
+/-
esc
set tempo
stop
Help us to improve Ultimate-Guitar.com Take our survey!
×
Difficulty
novice
-------------------------------------------------------------------------------
                             Bye Bye Love (The Cars Cover) - Alkaline Trio
-------------------------------------------------------------------------------
Tabbed by: Seth
Email: sethsique@yahoo

Tuning: Standard, I think.


INTRO ONE:
e|-------------------------------------------------------------------------|
B|-------------------------------------------------------------------------|
G|-7-7-7--7-7-7----7-7-7-9-------------------------------------------------|
D|-7-7-7--7-7-7----7-7-7-9-------------------------------------------------|
A|-5-5-5--5-5-5----5-5-5/7-------------------------------------------------|
E|-------------------------------------------------------------------------|

INTRO TWO:
e|-------------------------------------------------------------------------|
B|-------------------------------------------------------------------------|
G|------------7-7-x-x--6-6-x-x--4-4-x-x--------9-7-7-7-7-6-6-6-6-4-4-4-4-9-|
D|-2-2-x-x----7-7-x-x--6-6-x-x--4-4-x-x--2-2---x-x-x-x-x-x-x-x-x-x-x-x-x-x-|  (x2)
A|-2-2-x-x----5-5-x-x--4-4-x-x--2-2-x-x--2-2---7\5-5-5-5\4-4-4-4\2-2-2-2/7-|
E|-0-0-x-x-------------------------------0-0-------------------------------|

VERSE:
e|-------------------------------------------------------------------------|
B|-------------------------------------------------------------------------|
G|------------7-7-x-x--6-6-x-x--4-4-x-x--------9-7-7-7-7-6-6-6-6-4-4-4-4-9-|
D|-2-2-x-x----7-7-x-x--6-6-x-x--4-4-x-x--2-2---x-x-x-x-x-x-x-x-x-x-x-x-x-x-|  (x4)
A|-2-2-x-x----5-5-x-x--4-4-x-x--2-2-x-x--2-2---7\5-5-5-5\4-4-4-4\2-2-2-2/7-|
E|-0-0-x-x-------------------------------0-0-------------------------------|

PRE-CHORUS:
e|-------------------------------------------------------------------------|
B|-------------------------------------------------------------------------|
G|-----------------6-7-9-7-6-----------------------------------------------|
D|-----------------x-x-x-x-x-----------------------------------------------|
A|-----------------4-5-7-5-4-----------------------------------------------|
E|-7~----5~----7\-------------7~----5~-------------------------------------|

CHORUS:
e|-------------------------------------------------------------------------|
B|-------------------------------------------------------------------------|
G|-------------------------------------------------------------------------|
D|-2-2---9-9---7-7---7-7---------------------------------------------------|  (x4)
A|-2-2---9-9---7-7---7-7---------------------------------------------------|
E|-0-0---7-7---5-5---5-5---------------------------------------------------|

INTERLUDE (during synthesizer solo):
e|-------------------------------------------------------------------------|
B|-------------------------------------------------------------------------|
G|-------------------------------------------------------------------------|
D|-2-2-2-2--9-9-9-9--7-7-7-7-7-7-7-7---------------------------------------|  (x4)
A|-2-2-2-2--9-9-9-9--7-7-7-7-7-7-7-7---------------------------------------|
E|-0-0-0-0--7-7-7-7--5-5-5-5-5-5-5-5---------------------------------------|

OUTRO:
e|-------------------------------------------------------------------------|
B|-------------------------------------------------------------------------|
G|-------------------------------------------9-7-7-7-7-6-6-6-6-4-4-4-4-9---|
D|-2-2-2-2--9-9-9-9--5-5-5-5-5-5-5-5----2-2--x-x-x-x-x-x-x-x-x-x-x-x-x-x---|
A|-2-2-2-2--9-9-9-9--7-7-7-7-7-7-7-7----2-2--7\5-5-5-5\4-4-4-4\2-2-2-2/7---|
E|-0-0-0-0--7-7-7-7--5-5-5-5-5-5-5-5----0-0--------------------------------|

e|-------------------------------------------------------------------------|
B|-------------------------------------------------------------------------|
G|-------------------------------------------9-7-7-7-7-6-6-6-6-4-4-4-4-9---|
D|-2-2-2-2--9-9-9-9--5-5-5-5-5-5-5-5----2-2--x-x-x-x-x-x-x-x-x-x-x-x-x-x---|
A|-2-2-2-2--9-9-9-9--7-7-7-7-7-7-7-7----2-2--7\5-5-5-5\4-4-4-4\2-2-2-2/7---|
E|-0-0-0-0--7-7-7-7--5-5-5-5-5-5-5-5----0-0--------------------------------|


e|-------------------------------------------------------------------------|
B|-------------------------------------------------------------------------|
G|---------------------------------7-7-7--7-7-7-9--------------------------|
D|-2-2--9-9--7-7--7-7----2-2--9-9--x-x-x--x-x-x-x--------------------------|
A|-2-2--9-9--7-7--7-7----2-2--9-9--5-5-5--5-5-5/7--------------------------|
E|-0-0--7-7--5-5--5-5----0-0--7-7------------------------------------------|

e|-------------------------------------------------------------------------|
B|-------------------------------------------------------------------------|
G|---------------------------------7-7-7--7-7-7--7-7-7--7-7-9--------------|
D|-2-2--9-9--7-7--7-7----2-2--9-9--x-x-x--x-x-x--x-x-x--x-x-x--------------|
A|-2-2--9-9--7-7--7-7----2-2--9-9--5-5-5--5-5-5--5-5-5--5-5/7--------------|
E|-0-0--7-7--5-5--5-5----0-0--7-7------------------------------------------|

~~END~~


***NOTE:  For the "slide part" during the verse, you could also to this:
          (It sounds better, but it's harder to do, though both ways
           sound good.)
e|-------------------------------------------------------------------------|
B|-------------------------------------------------------------------------|
G|--------7-9-7-7-7-6-7-6-6-6-4-6-4-4-4-6-9--------------------------------|
D|-2-2----x-x-x-x-x-x-x-x-x-x-x-x-x-x-x-x-x--------------------------------|
A|-2-2----5/7\5-5-5-4/5\4-4-4-2/4\2-2-2-4/7--------------------------------|
E|-0-0---------------------------------------------------------------------|




OUTLINE:
-Intro One
-Intro Two
-Verse
-Pre-Chorus
-Chorus
-Verse
-Pre-Chorus
-Chorus
-Interlude (synthesizer solo)
-Verse
-Pre-Chorus
-Chorus
-Outro



LYRICS:

(verse)
I can't feel this way much longer 
Expecting to survive 
With all these hidden innuendoes 
Just waiting to arrive 
It's such a wavy midnight 
And you slip into insane 
Electric angel rock and roller 
I hear what you're playin' 

(pre-chorus)
It's an orangy sky 
Always it's some other guy 
It's just a broken lullaby 

(chorus)
Bye bye love 
Bye bye love 
Bye bye love 
Bye bye love 

(verse)
Substitution mass confusion 
Clouds inside your head 
Involving all my energies 
Until you visited 
With your eyes of porcelain and of blue 
They shock me into sense 
You think you're so illustrious 
You call yourself intense 

(pre-chorus)
It's an orangy sky 
Always it's some other guy 
It's just a broken lullaby 

(chorus)
Bye bye love 
Bye g-bye love 
Bye bye love 
Bye bye love-ov-ov-ove 

(verse)
Substitution mass confusion 
Clouds inside your head 
Were foggin' all my energies 
Until you visited 
With your eyes of porcelain and of blue 
They shock me into sense 
You think you're so illustrious 
You call yourself intense 

(pre-chorus)
It's an orangy sky 
Always it's some other guy 
It's just a stupid, fuckin' lullaby 

(chorus)
Bye bye love 
Bye bye love 
Bye bye love 
Bye bye love 


****************************************************************************
| /  slide up
| \  slide down
| ~  vibrato
| x  Mute note or Palm mute
comments
We did not receive enough feedback on this tab! Please rate:
print report bad tab
1 2 3 4 5
I want to post or [tab]
guest
You may want to rate the tab now too:
select rating
Please do not post tabs as comments. Select "correction" instead!