Oops, an error
Loading. Please wait.

Clavicle Bass Tab

1,655 views 1 this week
no commentswrite comment
1 2 3 4 5
2 more votes to show rating
add to favorites
launch autoscroll
font size
0
reset
guitar tuner
Autoscroll
slow
fast
+/-
esc
set tempo
stop
Help us to improve Ultimate-Guitar.com Take our survey!
×
Difficulty
intermediate
Band: Alkaline Trio
Song: Clavicle
Album: Goddammit
Tabber: Dave Lutz (DaveEatWorld@hotmail.com)

*There are a lot of fills in this song, a usual occurance with Alkaline Trio songs as Dan is a
great bass player. I tried to get them all, but its hard as the recording isn't the clearest.

> - means strum, listen to the song for timing
~ - Let note ring

Verse(Do this three times then):
G|-----------------------------------------------------------------------------|
D|-----------------------------------------------------------------------------|
A|----2>-4>-7>-----------------------------------------------------------------|
E|5>---------------------------------------------------------------------------|

G|---------------------------------------------------------------------------|
D|---------------------------------------------------------------------------|
A|--------5555555------------------------------------------------------------|
E|222222---------------------------------------------------------------------|

Chorus(first time, these are single notes, not strummed, listen for timing):
G|---------------------------------------------------------------------------|
D|----------------------------6~--------7~--------7~-------------------------|
A|---7~--4~--5~-----7~-2~--4~----4~--5~----5~--0~-0~-------------------------|
E|2~-----------2~------------------------------------------------------------|

After First Chorus before next verse(I'm not sure about this part, could be wrong):
G|---------------------------------------------------------------------------|
D|77-6-4-2-0-----------------------------------------------------------------|
A|------------4-2-5>---------------------------------------------------------|
E|---------------------------------------------------------------------------|

Bridge(Where Matt starts singing "Before you left...."):
G|---------------------------------------------------------------------------|
D|---------------------------------------------------------------------------|
A|---------4444--555-4-555-7-555-4-555-7-------------------------------------|
E|77777777-------------------------------------------------------------------|

Bridge continued(*Listen for timing here*):
G|-------------7>------------------------------------------------------------|
D|---------------------------------------------------------------------------|
A|---------5>----------------------------------------------------------------|
E|5~--2>------------5>-------------------------------------------------------|

2nd Chorus(like first but everything is strummed, not single notes):
G|---------------------------------------------------------------------------|
D|-------------------------6-------7------7>---------------------------------|
A|---7>-4>-5>-----7>-2>-4>---4--5>---5-0>-0>---------------------------------|
E|2>-----------2>------------------------------------------------------------|

After 2nd Chorus(I'm not sure about this part, could be wrong):
G|---------------------------------------------------------------------------|
D|7777-66-44-22-00-----------------------------------------------------------|
A|------------------44-22-5>-------------------------------------------------|
E|---------------------------------------------------------------------------|
Suggest correction
Give kudos to tab author, rate the tab!
1 2 3 4 5
comments
print report bad tab
guest
You may want to rate the tab now too:
select rating
Wanna post a correction for this tab? Suggest correction