Oops, an error
Loading. Please wait.

Continental Tab

version 4
version 4

Whole song

Interactive

1,429 views 1 this week
2 commentsread comments
1 2 3 4 5
accurate
x 4
add to favorites
launch autoscroll
font size
0
reset
how to read this tab
guitar tuner
Tab Pro tools
  • play this tab
  • loop segment
  • change instrument
  • show fretboard
  • metronome
×
Best way to learn
"Continental"
Autoscroll
slow
fast
+/-
esc
set tempo
stop
Contributor
Difficulty
Song: Continental
Band: Alkaline Trio
Album: Good Mourning

Intro
e|-------------------------------------------------|
B|-------------------------------------------------|
G|-------------------------------------------------|     2x
D|----6---4---7---4---6------6---4-----------------|
A|--44-44--44--44--44--44444--44--4466677766-------|
E|-------------------------------------------------|

Verse 1
e|-------------------------------------------------|
B|-------------------------------------------------|
G|-------------------------------------------------|
D|--66666666666777664444444444444444---------------|     2x
A|--44444444000000002222222222222222---------------|
E|-------------------------------------------------|

Riff 1
e|--------------------------------------------------|
B|--------------------------------------------------|
G|-----------99999999-------------------------------|
D|--77777777-99999999-9999999999999999--------------|
A|--77777777-77777777-9999999999999999--------------|
E|--55555555----------7777777777777777--------------|

Verse 1
e|--------------------------------------------------|
B|--------------------------------------------------|
G|--------------------------------------------------|
D|--66666666666777664444444444444444----------------|     2x
A|--44444444000000002222222222222222----------------|
E|--------------------------------------------------|

Verse 1 End
e|-----------------------------------------------------------------------------------|
B|-----------------------------------------------------------------------------------|
G|-----------------------------------------------------------------------------------|
D|--6666666666677766-9999999999999999------------------------------------------------|
A|--4444444400000000-7777777777777777-99999999999999999999999999999999---------------|
E|------------------------------------77777777777777777777777777777777---------------|

Chorus
e|--------------------------------------------------|
B|--------------------------------------------------|
G|-----------99999999-------------------------------|
D|--77777777-99999999-9999999999999999--------------|
A|--77777777-77777777-9999999999999999--------------|
E|--55555555----------7777777777777777--------------|

e|------------------------------------------------|
B|------------------------------------------------|
G|-----------99999999-----------------------------|
D|--77777777-99999999-9999999999999999-6666-------|
A|--77777777-77777777-9999999999999999-6666-------|
E|--55555555----------7777777777777777-4444-------|

e|--------------------------------------------------|
B|--------------------------------------------------|
G|-----------99999999-------------------------------|
D|--77777777-99999999-9999999999999999--------------|
A|--77777777-77777777-9999999999999999--------------|
E|--55555555----------7777777777777777--------------|

e|------------------------------------------------|
B|------------------------------------------------|
G|------------------------------------------------|
D|--77777777-66666666-77777777-99999999-----------|
A|--77777777-66666666-77777777-99999999-----------|
E|--55555555-44444444-55555555-77777777-----------|

Repeat Intro

Verse 2
e|-------------------------------------------------|
B|-------------------------------------------------|
G|-------------------------------------------------|
D|--66666666666777664444444444444444---------------|     2x
A|--44444444000000002222222222222222---------------|
E|-------------------------------------------------|
    ********************************

Verse 2 End
e|--------------------------------------------------------------------------------|
B|--------------------------------------------------------------------------------|
G|--------------------------------------------------------------------------------|
D|--6666666666677766-9999999999999999---------------------------------------------|
A|--4444444400000000-7777777777777777-99999999999999999999999999999999------------|
E|------------------------------------77777777777777777777777777777777------------|
    **************** **************** ***************************

Repeat Chorus

Bridge
e|--------------------------------------|
B|--------------------------------------|
G|--15/16-------------------------------|
D|----------13------------14------------|   (13 and 14 are Heavily Echoed)
A|--------------------------------------|
E|--------------------------------------|

Bridge/Intro
e|-------------------------------------------------|
B|-------------------------------------------------|
G|-------------------------------------------------|
D|----6---4---7---4---6------6---4-----------------|
A|--44-44--44--44--44--44444--44--4466677766-------|
E|-------------------------------------------------|
    ***** *** *** *** ****** *** ***********

e|-----------------------------------------------|
B|-----------------------------------------------|
G|-----------------------------------------------|
D|----6-4-7-4-6--6-4-----------------------------|
A|--44--------------66677766677766776667779999\\\|
E|--------------------------------------------\\\|
                    **************************
Repeat Chorus

e|--|
B|--|
G|--|
D|-2|
A|-2|
E|-0|
comments
print report bad tab
2 comments total.
0 reply
Smashed Pumpkin wrote on September 2 2007, 09:06 am

..I forgot to mute the end bit... crap

0 reply
nrlsky wrote on February 21 2008, 03:20 pm

You can edit tabs you know :D Go to your profile and click contributions then next to the song there should be some form of "update" button.

I want to post or [tab]
guest
You may want to rate the tab now too:
select rating
Please do not post tabs as comments. Select "correction" instead!