Oops, an error
Loading. Please wait.

Cooking Wine Tab

version 3
version 3

Whole song

Interactive

709 views 1 this week
no commentswrite comment
1 2 3 4 5
please rate
add to favorites
launch autoscroll
font size
0
reset
how to read this tab
guitar tuner
Tab Pro tools
  • play this tab
  • loop segment
  • change instrument
  • show fretboard
  • metronome
Autoscroll
slow
fast
+/-
esc
set tempo
stop
Contributor
Band: Alkaline Trio
Song: Cooking Wine
Standard tuning: eBGDAE

Intro (x1)
e|-----------------------------------|-----------------------------|
B|-----------------------------------|-----------------------------|
G|-777777----------------------------|-777777----------------------|
D|-777777-777777-55555555-5555/44\55-|-777777-777777-444444-555555-|
A|-555555-777777-55555555-5555/44\55-|-555555-777777-444444-555555-|
E|--------555555-33333333-3333-33-33-|--------555555-222222-333333-|

Pre-Verse (x1)
e|-----------------------------------|-------------------------|
B|-----------------------------------|-------------------------|
G|-777777----------------------------|-777777------------------|
D|-777777-777777-55555555-5555/44\55-|-777777-777777-4444-5555-|
A|-555555-777777-55555555-5555/44\55-|-555555-777777-4444-5555-|
E|--------555555-33333333-3333-33-33-|--------555555-2222-3333-|
PM                                                   .... ....

Verse 1 (x2)
e|--------------------|
B|--------------------|
G|-7~-------7~--------|
D|-7~-7~-5~-7~-7~-4/5-|
A|-5~-7~-5~-5~-7~-4/5-|
E|----5~-3~----5~-2/3-|

Post verse
e|---------------------------------------------------|
B|---------------------------------------------------|
G|-7~------------------------777777------------------|
D|-7~-7~-55555555-5555/44\55-777777-777777-4444-5555-|
A|-5~-7~-55555555-5555/44\55-555555-777777-4444-5555-|
E|----5~-33333333-3333-33-33--------555555-2222-3333-|
PM                                         .... ....

Chorus (He plays it like this in a live video i saw) (x3)
e|-----------------------------------------------------------------|
B|-----------------------------------------------------------------|
G|-12-12-12-12-12-12-12-12-12-12-12-12-12-12-12-12-777777-99999999-|
D|-12-12-12-12-12-12-12-12-12-12-12-12-12-12-12-12-777777-99999999-|
A|-10-10-10-10-10-10-10-10-10-10-10-10-10-10-10-10-555555-77777777-|
E|-----------------------------------------------------------------|

End chorus (x2)
e|-------------------------------------------------|
B|-------------------------------------------------|
G|-12-12-12-12-12-12-12-12-12-12-12-12-12-12-12-12-|
D|-12-12-12-12-12-12-12-12-12-12-12-12-12-12-12-12-|
A|-10-10-10-10-10-10-10-10-10-10-10-10-10-10-10-10-|
E|-------------------------------------------------|

Verse 2 (play Intro x2)
Pre-Verse (x1)
Chorus (x3)
End Chorus (x3 or x4 not sure but changes the rhythm but uses the same chord)

Outro x2
e|--------------------------------------------------|
B|--------------------------------------------------|
G|-777777--------12-12-12-12-11-11-11-11-7777-66-44-|
D|-777777-777777-x--x--x--x--x--x--x--x--xxxx-xx-xx-|
A|-555555-777777-10-10-10-10-9--9--9--9--5555-44-22-|
E|--------555555------------------------------------|
 
e|-----------------------------|
B|-----------------------------|
G|-777777----------------------|
D|-777777-777777-444444-555555-|
A|-555555-777777-444444-555555-|
E|--------555555-222222-333333-|

Finish with (x1)
e|-----------------------------------|------------------------------|
B|-----------------------------------|------------------------------|
G|-777777----------------------------|-777777--------------------7~-|
D|-777777-777777-55555555-5555/44\55-|-777777-777777-4444-55/777-7~-|
A|-555555-777777-55555555-5555/44\55-|-555555-777777-4444-55/777-5~-|
E|--------555555-33333333-3333-33-33-|--------555555-2222-33/555----|
PM                                                   .... .. ...

comments
We did not receive enough feedback on this tab! Please rate:
print report bad tab
1 2 3 4 5
I want to post or [tab]
guest
You may want to rate the tab now too:
select rating
Please do not post tabs as comments. Select "correction" instead!